999
DXF file: bg_BG-E1531-200BD-184-SS.dxf
999
Pro/ENGINEER 2020414 by Parametric Technology Corporation
  0
SECTION
  2
HEADER
  9
$ACADVER
  1
AC1032
  9
$DWGCODEPAGE
  3
ANSI_1252
  9
$EXTMAX
 10
22.0
 20
17.0
 30
0.0
  9
$EXTMIN
 10
0.0
 20
0.0
 30
0.0
  9
$LIMMIN
 10
0.0
 20
0.0
  9
$LIMMAX
 10
22.0
 20
17.0
  9
$VIEWCTR
 10
11.0
 20
8.5
  9
$VIEWSIZE
 40
17.0
  9
$CLAYER
  8
0
  9
$LTSCALE
 40
1.21
  9
$CELTYPE
  6
BYLAYER
  9
$DIMSCALE
 40
1.0
  9
$DIMASZ
 40
0.1875
  9
$DIMEXO
 40
0.0625
  9
$DIMDLI
 40
0.836
  9
$DIMEXE
 40
0.125
  9
$DIMCEN
 40
0.198
  9
$DIMLFAC
 40
6.0
  9
$DIMBLK
  1
_CLOSED
  9
$DIMALT
 70
0
  9
$DIMALTF
 40
25.4
  9
$DIMTXT
 40
0.15625
  9
$DIMTOL
 70
0
  9
$DIMLIM
 70
0
  9
$DIMTFAC
 40
1.0
  9
$DIMGAP
 40
0.09
  9
$DIMDSEP
 70
46
  9
$AUNITS
 70
0
  9
$PDMODE
 70
3
  9
$PDSIZE
 40
0.3125
  9
$HANDSEED
  5
3FF
  9
$TILEMODE
 70
1
  9
$MEASUREMENT
 70
0
  9
$INSUNITS
 70
1
  0
ENDSEC
  0
SECTION
  2
CLASSES
  0
CLASS
  1
ACDBDICTIONARYWDFLT
  2
AcDbDictionaryWithDefault
  3
AutoCAD 2000
 90
0
 91
1
280
0
281
0
  0
CLASS
  1
ACDBPLACEHOLDER
  2
AcDbPlaceHolder
  3
AutoCAD 2000
 90
0
 91
1
280
0
281
0
  0
CLASS
  1
LAYOUT
  2
AcDbLayout
  3
AutoCAD 2000
 90
0
 91
0
280
0
281
0
  0
ENDSEC
  0
SECTION
  2
TABLES
  0
TABLE
  2
VPORT
  5
8
100
AcDbSymbolTable
 70
2
  0
VPORT
  5
1F4
100
AcDbSymbolTableRecord
100
AcDbViewportTableRecord
  2
*ACTIVE
 70
0
 10
0.0
 20
0.0
 11
1.0
 21
1.0
 12
11.0
 22
8.5
 13
0.0
 23
0.0
 14
1.0
 24
1.0
 15
0.0
 25
0.0
 16
0.0
 26
0.0
 36
1.0
 17
0.0
 27
0.0
 37
0.0
 40
17.0
 41
1.2941176471
 42
50.0
 43
0.0
 44
0.0
 50
0.0
 51
0.0
 71
0
 72
100
 73
1
 74
1
 75
0
 76
0
 77
0
 78
0
  0
ENDTAB
  0
TABLE
  2
LTYPE
  5
5
100
AcDbSymbolTable
 70
6
  0
LTYPE
  5
14
100
AcDbSymbolTableRecord
100
AcDbLinetypeTableRecord
  2
BYBLOCK
 70
0
  3

 72
65
 73
0
 40
0.0
  0
LTYPE
  5
15
100
AcDbSymbolTableRecord
100
AcDbLinetypeTableRecord
  2
BYLAYER
 70
0
  3

 72
65
 73
0
 40
0.0
  0
LTYPE
  5
16
100
AcDbSymbolTableRecord
100
AcDbLinetypeTableRecord
  2
CONTINUOUS
 70
64
  3
Solid line
 72
65
 73
0
 40
0.0
  0
LTYPE
  5
1F5
100
AcDbSymbolTableRecord
100
AcDbLinetypeTableRecord
  2
CENTER
 70
64
  3
____ _ ____ _ ____ _ ____ _ ____ _ ____ _ ____
 72
65
 73
4
 40
0.6
 49
0.375
 74
0
 49
-0.075
 74
0
 49
0.075
 74
0
 49
-0.075
 74
0
  0
LTYPE
  5
1F6
100
AcDbSymbolTableRecord
100
AcDbLinetypeTableRecord
  2
HIDDEN
 70
64
  3
- - - - - - - - - - - - - - - - - - - -
 72
65
 73
2
 40
0.2
 49
0.1
 74
0
 49
-0.1
 74
0
  0
LTYPE
  5
1F7
100
AcDbSymbolTableRecord
100
AcDbLinetypeTableRecord
  2
PHANTOM
 70
64
  3
_____ _ _ _____ _ _ _____ _ _ _____
 72
65
 73
6
 40
0.8
 49
0.45
 74
0
 49
-0.05
 74
0
 49
0.1
 74
0
 49
-0.05
 74
0
 49
0.1
 74
0
 49
-0.05
 74
0
  0
LTYPE
  5
1F8
100
AcDbSymbolTableRecord
100
AcDbLinetypeTableRecord
  2
DOT
 70
64
  3
. . . . . . . . . . . . . . . . . . . .
 72
65
 73
2
 40
0.2
 49
0.1
 74
0
 49
-0.1
 74
0
  0
LTYPE
  5
1F9
100
AcDbSymbolTableRecord
100
AcDbLinetypeTableRecord
  2
DASHED
 70
64
  3
- - - - - - - - - - - - - - - - - - - -
 72
65
 73
2
 40
0.2
 49
0.1
 74
0
 49
-0.1
 74
0
  0
ENDTAB
  0
TABLE
  2
LAYER
  5
2
100
AcDbSymbolTable
 70
36
  0
LAYER
  5
10
100
AcDbSymbolTableRecord
100
AcDbLayerTableRecord
  2
0
 70
0
 62
7
  6
CONTINUOUS
370
-3
390
F
  0
LAYER
  5
1FA
100
AcDbSymbolTableRecord
100
AcDbLayerTableRecord
  2
DEFAULT_1
 70
0
 62
7
  6
CENTER
370
-3
390
F
  0
LAYER
  5
1FB
100
AcDbSymbolTableRecord
100
AcDbLayerTableRecord
  2
DEFAULT_2
 70
0
 62
7
  6
HIDDEN
370
-3
390
F
  0
LAYER
  5
1FC
100
AcDbSymbolTableRecord
100
AcDbLayerTableRecord
  2
DEFAULT_3
 70
0
 62
7
  6
PHANTOM
370
-3
390
F
  0
LAYER
  5
1FD
100
AcDbSymbolTableRecord
100
AcDbLayerTableRecord
  2
01_ALL_DTM_PLN
 70
0
 62
7
  6
CONTINUOUS
370
-3
390
F
  0
LAYER
  5
1FE
100
AcDbSymbolTableRecord
100
AcDbLayerTableRecord
  2
01__ASM_ALL_DTM_PLN
 70
0
 62
7
  6
CONTINUOUS
370
-3
390
F
  0
LAYER
  5
1FF
100
AcDbSymbolTableRecord
100
AcDbLayerTableRecord
  2
01__ASM_DEF_DTM_PLN
 70
0
 62
7
  6
CONTINUOUS
370
-3
390
F
  0
LAYER
  5
200
100
AcDbSymbolTableRecord
100
AcDbLayerTableRecord
  2
01___PRT_ALL_DTM_PLN
 70
0
 62
7
  6
CONTINUOUS
370
-3
390
F
  0
LAYER
  5
201
100
AcDbSymbolTableRecord
100
AcDbLayerTableRecord
  2
01___PRT_DEF_DTM_PLN
 70
0
 62
7
  6
CONTINUOUS
370
-3
390
F
  0
LAYER
  5
202
100
AcDbSymbolTableRecord
100
AcDbLayerTableRecord
  2
02_ALL_AXES
 70
0
 62
7
  6
CONTINUOUS
370
-3
390
F
  0
LAYER
  5
203
100
AcDbSymbolTableRecord
100
AcDbLayerTableRecord
  2
02__ASM_ALL_AXES
 70
0
 62
7
  6
CONTINUOUS
370
-3
390
F
  0
LAYER
  5
204
100
AcDbSymbolTableRecord
100
AcDbLayerTableRecord
  2
02___PRT_ALL_AXES
 70
0
 62
7
  6
CONTINUOUS
370
-3
390
F
  0
LAYER
  5
205
100
AcDbSymbolTableRecord
100
AcDbLayerTableRecord
  2
03_ALL_CURVES
 70
0
 62
7
  6
CONTINUOUS
370
-3
390
F
  0
LAYER
  5
206
100
AcDbSymbolTableRecord
100
AcDbLayerTableRecord
  2
03__ASM_ALL_CURVES
 70
0
 62
7
  6
CONTINUOUS
370
-3
390
F
  0
LAYER
  5
207
100
AcDbSymbolTableRecord
100
AcDbLayerTableRecord
  2
03___PRT_ALL_CURVES
 70
0
 62
7
  6
CONTINUOUS
370
-3
390
F
  0
LAYER
  5
208
100
AcDbSymbolTableRecord
100
AcDbLayerTableRecord
  2
04_ALL_DTM_PNT
 70
0
 62
7
  6
CONTINUOUS
370
-3
390
F
  0
LAYER
  5
209
100
AcDbSymbolTableRecord
100
AcDbLayerTableRecord
  2
04__ASM_ALL_DTM_PNT
 70
0
 62
7
  6
CONTINUOUS
370
-3
390
F
  0
LAYER
  5
20A
100
AcDbSymbolTableRecord
100
AcDbLayerTableRecord
  2
04___PRT_ALL_DTM_PNT
 70
0
 62
7
  6
CONTINUOUS
370
-3
390
F
  0
LAYER
  5
20B
100
AcDbSymbolTableRecord
100
AcDbLayerTableRecord
  2
05_ALL_DTM_CSYS
 70
0
 62
7
  6
CONTINUOUS
370
-3
390
F
  0
LAYER
  5
20C
100
AcDbSymbolTableRecord
100
AcDbLayerTableRecord
  2
05__ASM_ALL_DTM_CSYS
 70
0
 62
7
  6
CONTINUOUS
370
-3
390
F
  0
LAYER
  5
20D
100
AcDbSymbolTableRecord
100
AcDbLayerTableRecord
  2
05__ASM_DEF_DTM_CSYS
 70
0
 62
7
  6
CONTINUOUS
370
-3
390
F
  0
LAYER
  5
20E
100
AcDbSymbolTableRecord
100
AcDbLayerTableRecord
  2
05___PRT_ALL_DTM_CSYS
 70
0
 62
7
  6
CONTINUOUS
370
-3
390
F
  0
LAYER
  5
20F
100
AcDbSymbolTableRecord
100
AcDbLayerTableRecord
  2
05___PRT_DEF_DTM_CSYS
 70
0
 62
7
  6
CONTINUOUS
370
-3
390
F
  0
LAYER
  5
210
100
AcDbSymbolTableRecord
100
AcDbLayerTableRecord
  2
06_ALL_SURFS
 70
0
 62
7
  6
CONTINUOUS
370
-3
390
F
  0
LAYER
  5
211
100
AcDbSymbolTableRecord
100
AcDbLayerTableRecord
  2
06__ASM_ALL_SURFS
 70
0
 62
7
  6
CONTINUOUS
370
-3
390
F
  0
LAYER
  5
212
100
AcDbSymbolTableRecord
100
AcDbLayerTableRecord
  2
06___PRT_ALL_SURFS
 70
0
 62
7
  6
CONTINUOUS
370
-3
390
F
  0
LAYER
  5
213
100
AcDbSymbolTableRecord
100
AcDbLayerTableRecord
  2
07__ASM_ALL_SKELETONS
 70
0
 62
7
  6
CONTINUOUS
370
-3
390
F
  0
LAYER
  5
214
100
AcDbSymbolTableRecord
100
AcDbLayerTableRecord
  2
DTM
 70
0
 62
7
  6
CONTINUOUS
370
-3
390
F
  0
LAYER
  5
215
100
AcDbSymbolTableRecord
100
AcDbLayerTableRecord
  2
HIDE
 70
0
 62
7
  6
CONTINUOUS
370
-3
390
F
  0
ENDTAB
  0
TABLE
  2
STYLE
  5
3
100
AcDbSymbolTable
 70
1
  0
STYLE
  5
11
100
AcDbSymbolTableRecord
100
AcDbTextStyleTableRecord
  2
STANDARD
 70
0
 40
0.0
 41
0.8
 50
0.0
 71
0
 42
0.2
  3
SIMPLEX.SHX
  4

  0
STYLE
  5
216
100
AcDbSymbolTableRecord
100
AcDbTextStyleTableRecord
  2
TEXTSTYLE_1
 70
0
 40
0.0
 41
0.8
 50
0.0
 71
0
 42
0.2
  3
gdt
  4

  0
ENDTAB
  0
TABLE
  2
VIEW
  5
6
100
AcDbSymbolTable
 70
0
  0
ENDTAB
  0
TABLE
  2
UCS
  5
7
100
AcDbSymbolTable
 70
0
  0
ENDTAB
  0
TABLE
  2
APPID
  5
9
100
AcDbSymbolTable
 70
1
  0
APPID
  5
217
100
AcDbSymbolTableRecord
100
AcDbRegAppTableRecord
  2
ACAD
 70
0
  0
ENDTAB
  0
TABLE
  2
BLOCK_RECORD
  5
1
100
AcDbSymbolTable
 70
0
  0
BLOCK_RECORD
  5
218
100
AcDbSymbolTableRecord
100
AcDbBlockTableRecord
  2
*Model_Space
  0
BLOCK_RECORD
  5
219
100
AcDbSymbolTableRecord
100
AcDbBlockTableRecord
  2
*Paper_Space
  0
BLOCK_RECORD
  5
21A
100
AcDbSymbolTableRecord
100
AcDbBlockTableRecord
  2
_CLOSED
  0
ENDTAB
  0
TABLE
  2
DIMSTYLE
  5
A
100
AcDbSymbolTable
 70
1
100
AcDbDimStyleTable
 71
0
  0
DIMSTYLE
105
21B
100
AcDbSymbolTableRecord
100
AcDbDimStyleTableRecord
  2
STANDARD
 70
0
  3

  4

 40
1.0
 41
0.1875
 42
0.0625
 43
0.38
 44
0.125
 45
0.0
 46
0.0
 47
0.0001
 48
0.0001
140
0.15625
141
0.09
142
0.0
143
25.4
144
1.0
145
0.0
146
1.0
147
0.09
 71
0
 72
0
 73
1
 74
1
 75
0
 76
0
 77
0
 78
4
 79
1
170
0
171
3
172
0
173
0
174
0
175
0
176
0
177
0
178
0
270
2
179
4
271
4
272
4
273
2
274
2
275
0
280
0
281
0
282
0
283
1
284
4
285
0
286
0
287
3
288
0
340
11
278
46
341
21A
342
21A
343
21A
344
21A
  0
ENDTAB
  0
ENDSEC
  0
SECTION
  2
BLOCKS
  0
BLOCK
  5
20
100
AcDbEntity
  8
0
100
AcDbBlockBegin
  2
*Model_Space
 70
0
 10
0.0
 20
0.0
 30
0.0
  3
*Model_Space
  1

  0
ENDBLK
  5
21
100
AcDbEntity
  8
0
100
AcDbBlockEnd
  0
BLOCK
  5
1C
100
AcDbEntity
  8
0
100
AcDbBlockBegin
  2
*Paper_Space
 70
0
 10
0.0
 20
0.0
 30
0.0
  3
*Paper_Space
  1

  0
ENDBLK
  5
1D
100
AcDbEntity
  8
0
100
AcDbBlockEnd
  0
BLOCK
  5
21C
100
AcDbEntity
  8
0
100
AcDbBlockBegin
  2
_CLOSED
 70
64
 10
0.0
 20
0.0
  3
_CLOSED
  1

  0
LINE
  5
21D
100
AcDbEntity
  8
0
  6
BYBLOCK
 62
0
100
AcDbLine
 10
0.0
 20
0.0
 11
-1.0
 21
0.1666666667
  0
LINE
  5
21E
100
AcDbEntity
  8
0
  6
BYBLOCK
 62
0
100
AcDbLine
 10
-1.0
 20
0.1666666667
 11
-1.0
 21
-0.1666666667
  0
LINE
  5
21F
100
AcDbEntity
  8
0
  6
BYBLOCK
 62
0
100
AcDbLine
 10
-1.0
 20
-0.1666666667
 11
0.0
 21
0.0
  0
LINE
  5
220
100
AcDbEntity
  8
0
  6
BYBLOCK
 62
0
100
AcDbLine
 10
-1.0
 20
0.0
 11
0.0
 21
0.0
  0
ENDBLK
  5
221
100
AcDbEntity
  8
0
  6
BYBLOCK
 62
0
100
AcDbBlockEnd
  0
ENDSEC
  0
SECTION
  2
ENTITIES
  0
LINE
  5
222
100
AcDbEntity
  8
0
100
AcDbLine
 62
7
  6
BYLAYER
 10
0.0
 20
0.0
 11
0.0
 21
17.0
  0
LINE
  5
223
100
AcDbEntity
  8
0
100
AcDbLine
 62
7
  6
BYLAYER
 10
0.0
 20
0.0
 11
22.0
 21
0.0
  0
LINE
  5
224
100
AcDbEntity
  8
0
100
AcDbLine
 62
7
  6
BYLAYER
 10
0.0
 20
17.0
 11
22.0
 21
17.0
  0
LINE
  5
225
100
AcDbEntity
  8
0
100
AcDbLine
 62
7
  6
BYLAYER
 10
22.0
 20
0.0
 11
22.0
 21
17.0
  0
LINE
  5
226
100
AcDbEntity
  8
0
100
AcDbLine
 62
7
  6
BYLAYER
 10
3.5208333333
 20
3.5722141667
 11
3.5208333333
 21
4.9086725
  0
LINE
  5
227
100
AcDbEntity
  8
0
100
AcDbLine
 62
7
  6
BYLAYER
 10
3.6291666667
 20
3.53211
 11
3.6291666667
 21
5.0529433333
  0
LINE
  5
228
100
AcDbEntity
  8
0
100
AcDbLine
 62
7
  6
BYLAYER
 10
4.3333333333
 20
3.5672192548
 11
4.3333333333
 21
3.4904433333
  0
LWPOLYLINE
  5
229
100
AcDbEntity
  8
0
100
AcDbPolyline
 62
7
  6
BYLAYER
 90
51
 70
0
 10
6.8125
 20
3.1117445628
 10
6.8224644185
 20
3.1119807399
 10
6.8337981354
 20
3.1128235495
 10
6.8450908877
 20
3.1142761141
 10
6.8562640315
 20
3.116327621
 10
6.8672557225
 20
3.1189617255
 10
6.878005597
 20
3.1221554463
 10
6.8884586704
 20
3.1258754117
 10
6.8985632933
 20
3.1300782946
 10
6.9082729608
 20
3.1347160256
 10
6.9175460629
 20
3.1397361824
 10
6.9263429583
 20
3.1450802589
 10
6.9346459293
 20
3.1506955673
 10
6.9424307874
 20
3.1565147269
 10
6.9497197353
 20
3.1625014587
 10
6.9565235968
 20
3.1686144188
 10
6.9628626292
 20
3.1748234412
 10
6.9687554424
 20
3.1811006856
 10
6.9742209179
 20
3.1874218764
 10
6.9792799787
 20
3.1937658822
 10
6.9839524636
 20
3.2001108516
 10
6.988259986
 20
3.2064408989
 10
6.992217945
 20
3.2127342322
 10
6.9958538028
 20
3.2189920221
 10
6.9991540294
 20
3.2251441913
 10
7.0021234973
 20
3.2311423126
 10
7.0047637109
 20
3.2369217387
 10
7.0070789375
 20
3.24240999
 10
7.0090968347
 20
3.2475813809
 10
7.0108285003
 20
3.2523674962
 10
7.0123304292
 20
3.2568324843
 10
7.0136362745
 20
3.2609986248
 10
7.0147907065
 20
3.2649444335
 10
7.0158338752
 20
3.2687623889
 10
7.0167763647
 20
3.272456744
 10
7.0176395274
 20
3.276082285
 10
7.0184195565
 20
3.2795945481
 10
7.0191182708
 20
3.282965038
 10
7.0197447934
 20
3.2861985029
 10
7.0203033752
 20
3.2892767211
 10
7.0208071535
 20
3.2922342438
 10
7.0212650436
 20
3.2950916273
 10
7.0216852013
 20
3.2978726273
 10
7.0220748431
 20
3.3006026122
 10
7.0224390466
 20
3.3032986024
 10
7.0227827423
 20
3.3059816836
 10
7.0231092821
 20
3.3086653098
 10
7.0234219383
 20
3.3113658845
 10
7.0237231177
 20
3.3140957179
 10
7.0240151862
 20
3.3168695118
 10
7.0245783134
 20
3.3225897371
  0
LINE
  5
22A
100
AcDbEntity
  8
0
100
AcDbLine
 62
7
  6
BYLAYER
 10
6.8046007752
 20
3.1119129747
 11
6.8125
 21
3.1117445628
  0
LINE
  5
22B
100
AcDbEntity
  8
0
100
AcDbLine
 62
7
  6
BYLAYER
 10
6.7679494333
 20
3.0947099224
 11
6.5291666667
 21
3.1112766667
  0
LINE
  5
22C
100
AcDbEntity
  8
0
100
AcDbLine
 62
7
  6
BYLAYER
 10
4.7291666667
 20
4.514351686
 11
4.7291666667
 21
3.9665349807
  0
LINE
  5
22D
100
AcDbEntity
  8
0
100
AcDbLine
 62
7
  6
BYLAYER
 10
4.75
 20
4.03211
 11
4.75
 21
4.4487766667
  0
LINE
  5
22E
100
AcDbEntity
  8
0
100
AcDbLine
 62
7
  6
BYLAYER
 10
4.3333333333
 20
3.4904433333
 11
5.5833333333
 21
3.4904433333
  0
LINE
  5
22F
100
AcDbEntity
  8
0
100
AcDbLine
 62
7
  6
BYLAYER
 10
4.3333333333
 20
3.52211
 11
5.5833333333
 21
3.52211
  0
LINE
  5
230
100
AcDbEntity
  8
0
100
AcDbLine
 62
7
  6
BYLAYER
 10
3.5311180509
 20
3.53211
 11
4.3333333333
 21
3.53211
  0
LINE
  5
231
100
AcDbEntity
  8
0
100
AcDbLine
 62
7
  6
BYLAYER
 10
5.5833333333
 20
3.53211
 11
5.875
 21
3.53211
  0
LINE
  5
232
100
AcDbEntity
  8
0
100
AcDbLine
 62
7
  6
BYLAYER
 10
4.3333333333
 20
3.5672192548
 11
5.5833333333
 21
3.5672192548
  0
LINE
  5
233
100
AcDbEntity
  8
0
100
AcDbLine
 62
7
  6
BYLAYER
 10
7.4791666667
 20
3.65711
 11
7.3541666667
 21
3.65711
  0
LINE
  5
234
100
AcDbEntity
  8
0
100
AcDbLine
 62
7
  6
BYLAYER
 10
7.3541666667
 20
3.8961739171
 11
7.0625
 21
3.8706563902
  0
LINE
  5
235
100
AcDbEntity
  8
0
100
AcDbLine
 62
7
  6
BYLAYER
 10
5.9567708323
 20
3.7464329167
 11
6.4473958263
 21
3.7464329167
  0
LINE
  5
236
100
AcDbEntity
  8
0
100
AcDbLine
 62
7
  6
BYLAYER
 10
5.1666666667
 20
4.4487766667
 11
5.1666666667
 21
4.03211
  0
LINE
  5
237
100
AcDbEntity
  8
0
100
AcDbLine
 62
7
  6
BYLAYER
 10
5.1875
 20
4.514351686
 11
5.1875
 21
3.9665349807
  0
LINE
  5
238
100
AcDbEntity
  8
0
100
AcDbLine
 62
7
  6
BYLAYER
 10
6.5291666587
 20
5.2284641667
 11
5.875
 21
4.8966933333
  0
LINE
  5
239
100
AcDbEntity
  8
0
100
AcDbLine
 62
7
  6
BYLAYER
 10
6.5291666587
 20
3.2524225
 11
5.875
 21
3.5841933333
  0
LINE
  5
23A
100
AcDbEntity
  8
0
100
AcDbLine
 62
7
  6
BYLAYER
 10
4.7291666667
 20
3.9665349807
 11
5.1875
 21
3.9665349807
  0
LINE
  5
23B
100
AcDbEntity
  8
0
100
AcDbLine
 62
7
  6
BYLAYER
 10
4.7291666667
 20
3.9904433333
 11
5.1875
 21
3.9904433333
  0
LINE
  5
23C
100
AcDbEntity
  8
0
100
AcDbLine
 62
7
  6
BYLAYER
 10
6.4473958263
 20
4.1154433333
 11
5.9567708323
 21
4.1154433333
  0
LINE
  5
23D
100
AcDbEntity
  8
0
100
AcDbLine
 62
7
  6
BYLAYER
 10
5.5833333333
 20
3.5672192548
 11
5.5833333333
 21
3.4904433333
  0
LINE
  5
23E
100
AcDbEntity
  8
0
100
AcDbLine
 62
7
  6
BYLAYER
 10
5.6177083333
 20
5.0529433333
 11
5.6177083333
 21
3.53211
  0
LINE
  5
23F
100
AcDbEntity
  8
0
100
AcDbLine
 62
7
  6
BYLAYER
 10
6.4473958263
 20
4.3654433333
 11
5.9567708323
 21
4.3654433333
  0
LINE
  5
240
100
AcDbEntity
  8
0
100
AcDbLine
 62
7
  6
BYLAYER
 10
5.7260416667
 20
3.53211
 11
5.7260416667
 21
4.9920058333
  0
LINE
  5
241
100
AcDbEntity
  8
0
100
AcDbLine
 62
7
  6
BYLAYER
 10
5.7666666667
 20
3.53211
 11
5.7666666667
 21
4.9513808333
  0
LINE
  5
242
100
AcDbEntity
  8
0
100
AcDbLine
 62
7
  6
BYLAYER
 10
4.7916666667
 20
4.4904433333
 11
5.125
 21
4.4904433333
  0
LINE
  5
243
100
AcDbEntity
  8
0
100
AcDbLine
 62
7
  6
BYLAYER
 10
4.7291666667
 20
4.514351686
 11
5.1875
 21
4.514351686
  0
LINE
  5
244
100
AcDbEntity
  8
0
100
AcDbLine
 62
7
  6
BYLAYER
 10
5.875
 20
4.9513808333
 11
5.875
 21
3.53211
  0
LINE
  5
245
100
AcDbEntity
  8
0
100
AcDbLine
 62
7
  6
BYLAYER
 10
5.9567708323
 20
4.73445375
 11
5.9567708323
 21
3.7464329167
  0
LINE
  5
246
100
AcDbEntity
  8
0
100
AcDbLine
 62
7
  6
BYLAYER
 10
7.3541666667
 20
4.6254433333
 11
7.0560357873
 21
4.6254433333
  0
LINE
  5
247
100
AcDbEntity
  8
0
100
AcDbLine
 62
7
  6
BYLAYER
 10
5.9567708323
 20
4.73445375
 11
6.4473958263
 21
4.73445375
  0
LINE
  5
248
100
AcDbEntity
  8
0
100
AcDbLine
 62
7
  6
BYLAYER
 10
7.4791666667
 20
4.8237766667
 11
7.3541666667
 21
4.8237766667
  0
LINE
  5
249
100
AcDbEntity
  8
0
100
AcDbLine
 62
7
  6
BYLAYER
 10
5.875
 20
4.9513808333
 11
5.7666666667
 21
4.9513808333
  0
LINE
  5
24A
100
AcDbEntity
  8
0
100
AcDbLine
 62
7
  6
BYLAYER
 10
5.7260416667
 20
4.9920058333
 11
5.6177083333
 21
4.9920058333
  0
LINE
  5
24B
100
AcDbEntity
  8
0
100
AcDbLine
 62
7
  6
BYLAYER
 10
3.6291666667
 20
4.9920058333
 11
3.6041666667
 21
4.9920058333
  0
LINE
  5
24C
100
AcDbEntity
  8
0
100
AcDbLine
 62
7
  6
BYLAYER
 10
5.7666666667
 20
4.9513808333
 11
5.7260416667
 21
4.9920058333
  0
LINE
  5
24D
100
AcDbEntity
  8
0
100
AcDbLine
 62
7
  6
BYLAYER
 10
6.3125
 20
5.40711
 11
6.3125
 21
5.29211
  0
LINE
  5
24E
100
AcDbEntity
  8
0
100
AcDbLine
 62
7
  6
BYLAYER
 10
3.6291666667
 20
5.0529433333
 11
5.6177083333
 21
5.0529433333
  0
LINE
  5
24F
100
AcDbEntity
  8
0
100
AcDbLine
 62
7
  6
BYLAYER
 10
6.8921653314
 20
5.15711
 11
6.9408333333
 21
5.15711
  0
LINE
  5
250
100
AcDbEntity
  8
0
100
AcDbLine
 62
7
  6
BYLAYER
 10
6.4473958263
 20
4.73445375
 11
6.4473958263
 21
3.7464329167
  0
LINE
  5
251
100
AcDbEntity
  8
0
100
AcDbLine
 62
7
  6
BYLAYER
 10
6.5208333333
 20
5.29211
 11
6.5208333333
 21
5.2242377906
  0
LINE
  5
252
100
AcDbEntity
  8
0
100
AcDbLine
 62
7
  6
BYLAYER
 10
6.5291666667
 20
5.36961
 11
6.5291666667
 21
3.1112766667
  0
LINE
  5
253
100
AcDbEntity
  8
0
100
AcDbLine
 62
7
  6
BYLAYER
 10
6.7679494333
 20
5.3861767443
 11
6.5291666667
 21
5.36961
  0
LINE
  5
254
100
AcDbEntity
  8
0
100
AcDbLine
 62
7
  6
BYLAYER
 10
7.3125
 20
5.29211
 11
6.8125
 21
5.29211
  0
LINE
  5
255
100
AcDbEntity
  8
0
100
AcDbLine
 62
7
  6
BYLAYER
 10
6.3125
 20
5.29211
 11
6.5291666667
 21
5.29211
  0
LINE
  5
256
100
AcDbEntity
  8
0
100
AcDbLine
 62
7
  6
BYLAYER
 10
6.3125
 20
5.40711
 11
7.3125
 21
5.40711
  0
LINE
  5
257
100
AcDbEntity
  8
0
100
AcDbLine
 62
7
  6
BYLAYER
 10
6.8125
 20
5.34461
 11
6.8125
 21
3.1659661834
  0
LINE
  5
258
100
AcDbEntity
  8
03___PRT_ALL_CURVES
100
AcDbLine
 62
7
  6
BYLAYER
 10
6.8125
 20
3.1659007761
 11
6.8125
 21
3.1117445628
  0
LWPOLYLINE
  5
259
100
AcDbEntity
  8
0
100
AcDbPolyline
 62
7
  6
BYLAYER
 90
7
 70
0
 10
7.0163615023
 20
3.3555036361
 10
7.0163669834
 20
3.3554605921
 10
7.0163577955
 20
3.3555368851
 10
7.0163259532
 20
3.3558130197
 10
7.0162742337
 20
3.3562841695
 10
7.0162049953
 20
3.3569463551
 10
7.0161204741
 20
3.3577940169
  0
LWPOLYLINE
  5
25A
100
AcDbEntity
  8
0
100
AcDbPolyline
 62
7
  6
BYLAYER
 90
25
 70
0
 10
6.9729138412
 20
5.0187022525
 10
6.972684651
 20
5.0209367295
 10
6.9724471873
 20
5.023142948
 10
6.9721999151
 20
5.0253289078
 10
6.9719406176
 20
5.0275065575
 10
6.9716670458
 20
5.0296855302
 10
6.9713759069
 20
5.0318808284
 10
6.9710635235
 20
5.0341064731
 10
6.9707259109
 20
5.0363747243
 10
6.9703583325
 20
5.0386987896
 10
6.9699554428
 20
5.0410913672
 10
6.9695109009
 20
5.0435663901
 10
6.9690179687
 20
5.0461350195
 10
6.968468872
 20
5.0488089487
 10
6.9678546748
 20
5.0516002704
 10
6.9671675278
 20
5.0545115623
 10
6.966389783
 20
5.0575799771
 10
6.9655047928
 20
5.0608266887
 10
6.9644873036
 20
5.0642918532
 10
6.9633094066
 20
5.0680078922
 10
6.9619387393
 20
5.072004206
 10
6.9603300372
 20
5.0763268862
 10
6.9584633073
 20
5.0809377964
 10
6.956304788
 20
5.0858286888
 10
6.9536456962
 20
5.0913287211
  0
LINE
  5
25B
100
AcDbEntity
  8
0
100
AcDbLine
 62
7
  6
BYLAYER
 10
6.9733530056
 20
5.0141128893
 11
6.9729138412
 21
5.0187022525
  0
LINE
  5
25C
100
AcDbEntity
  8
0
100
AcDbLine
 62
7
  6
BYLAYER
 10
7.0161204741
 20
3.3577940169
 11
7.0159124534
 21
3.3600319998
  0
LINE
  5
25D
100
AcDbEntity
  8
0
100
AcDbLine
 62
7
  6
BYLAYER
 10
6.973773592
 20
5.0093118826
 11
6.9733530056
 21
5.0141128893
  0
LINE
  5
25E
100
AcDbEntity
  8
0
100
AcDbLine
 62
7
  6
BYLAYER
 10
7.0159124534
 20
3.3600319998
 11
7.0156620871
 21
3.3629698579
  0
LINE
  5
25F
100
AcDbEntity
  8
0
100
AcDbLine
 62
7
  6
BYLAYER
 10
6.9741819478
 20
5.0042444463
 11
6.973773592
 21
5.0093118826
  0
LINE
  5
260
100
AcDbEntity
  8
0
100
AcDbLine
 62
7
  6
BYLAYER
 10
7.0156620871
 20
3.3629698579
 11
7.0153784083
 21
3.3665836451
  0
LINE
  5
261
100
AcDbEntity
  8
0
100
AcDbLine
 62
7
  6
BYLAYER
 10
6.9745825847
 20
4.9988630353
 11
6.9741819478
 21
5.0042444463
  0
LINE
  5
262
100
AcDbEntity
  8
0
100
AcDbLine
 62
7
  6
BYLAYER
 10
7.0153784083
 20
3.3665836451
 11
7.0150684259
 21
3.3708513824
  0
LINE
  5
263
100
AcDbEntity
  8
0
100
AcDbLine
 62
7
  6
BYLAYER
 10
6.974978723
 20
4.9931260909
 11
6.9745825847
 21
4.9988630353
  0
LINE
  5
264
100
AcDbEntity
  8
0
100
AcDbLine
 62
7
  6
BYLAYER
 10
7.0150684259
 20
3.3708513824
 11
7.0147377277
 21
3.3757509315
  0
LINE
  5
265
100
AcDbEntity
  8
0
100
AcDbLine
 62
7
  6
BYLAYER
 10
6.9755693175
 20
4.9837758203
 11
6.974978723
 21
4.9931260909
  0
LINE
  5
266
100
AcDbEntity
  8
0
100
AcDbLine
 62
7
  6
BYLAYER
 10
7.0147377277
 20
3.3757509315
 11
7.0142119011
 21
3.384244292
  0
LINE
  5
267
100
AcDbEntity
  8
0
100
AcDbLine
 62
7
  6
BYLAYER
 10
6.9761604358
 20
4.9734307499
 11
6.9755693175
 21
4.9837758203
  0
LINE
  5
268
100
AcDbEntity
  8
0
100
AcDbLine
 62
7
  6
BYLAYER
 10
7.0142119011
 20
3.384244292
 11
7.0136571078
 21
3.3941062479
  0
LINE
  5
269
100
AcDbEntity
  8
0
100
AcDbLine
 62
7
  6
BYLAYER
 10
6.9767569947
 20
4.9619636338
 11
6.9761604358
 21
4.9734307499
  0
LINE
  5
26A
100
AcDbEntity
  8
0
100
AcDbLine
 62
7
  6
BYLAYER
 10
7.0136571078
 20
3.3941062479
 11
7.0130770896
 21
3.4053757599
  0
LINE
  5
26B
100
AcDbEntity
  8
0
100
AcDbLine
 62
7
  6
BYLAYER
 10
6.9775672208
 20
4.944705685
 11
6.9767569947
 21
4.9619636338
  0
LINE
  5
26C
100
AcDbEntity
  8
0
100
AcDbLine
 62
7
  6
BYLAYER
 10
7.0130770896
 20
3.4053757599
 11
7.0122677911
 21
3.4226984991
  0
LINE
  5
26D
100
AcDbEntity
  8
0
100
AcDbLine
 62
7
  6
BYLAYER
 10
7.0122677911
 20
3.4226984991
 11
7.0114190043
 21
3.4428249893
  0
LINE
  5
26E
100
AcDbEntity
  8
0
100
AcDbLine
 62
7
  6
BYLAYER
 10
6.9786118682
 20
4.9195547315
 11
6.9775672208
 21
4.944705685
  0
LINE
  5
26F
100
AcDbEntity
  8
0
100
AcDbLine
 62
7
  6
BYLAYER
 10
7.0114190043
 20
3.4428249893
 11
7.0105307152
 21
3.4659930664
  0
LINE
  5
270
100
AcDbEntity
  8
0
100
AcDbLine
 62
7
  6
BYLAYER
 10
6.9799172862
 20
4.8835124718
 11
6.9786118682
 21
4.9195547315
  0
LINE
  5
271
100
AcDbEntity
  8
0
100
AcDbLine
 62
7
  6
BYLAYER
 10
7.0105307152
 20
3.4659930664
 11
7.0096011478
 21
3.4924992572
  0
LINE
  5
272
100
AcDbEntity
  8
0
100
AcDbLine
 62
7
  6
BYLAYER
 10
7.0096011478
 20
3.4924992572
 11
7.0086271771
 21
3.5227031668
  0
LINE
  5
273
100
AcDbEntity
  8
0
100
AcDbLine
 62
7
  6
BYLAYER
 10
6.9812796323
 20
4.8404738292
 11
6.9799172862
 21
4.8835124718
  0
LINE
  5
274
100
AcDbEntity
  8
0
100
AcDbLine
 62
7
  6
BYLAYER
 10
7.0086271771
 20
3.5227031668
 11
7.0076078931
 21
3.5569167849
  0
LINE
  5
275
100
AcDbEntity
  8
0
100
AcDbLine
 62
7
  6
BYLAYER
 10
7.0076078931
 20
3.5569167849
 11
7.0065468818
 21
3.5952857098
  0
LINE
  5
276
100
AcDbEntity
  8
0
100
AcDbLine
 62
7
  6
BYLAYER
 10
6.98294457
 20
4.7805308283
 11
6.9812796323
 21
4.8404738292
  0
LINE
  5
277
100
AcDbEntity
  8
0
100
AcDbLine
 62
7
  6
BYLAYER
 10
7.0065468818
 20
3.5952857098
 11
7.0054480354
 21
3.6378914272
  0
LINE
  5
278
100
AcDbEntity
  8
0
100
AcDbLine
 62
7
  6
BYLAYER
 10
7.0054480354
 20
3.6378914272
 11
7.0043148478
 21
3.6847698847
  0
LINE
  5
279
100
AcDbEntity
  8
0
100
AcDbLine
 62
7
  6
BYLAYER
 10
6.9847015022
 20
4.7088999917
 11
6.98294457
 21
4.7805308283
  0
LINE
  5
27A
100
AcDbEntity
  8
0
100
AcDbLine
 62
7
  6
BYLAYER
 10
7.0043148478
 20
3.6847698847
 11
7.0031465612
 21
3.7360840903
  0
LINE
  5
27B
100
AcDbEntity
  8
0
100
AcDbLine
 62
7
  6
BYLAYER
 10
7.0031465612
 20
3.7360840903
 11
7.0019388298
 21
3.7921388494
  0
LINE
  5
27C
100
AcDbEntity
  8
0
100
AcDbLine
 62
7
  6
BYLAYER
 10
6.9868389926
 20
4.6110446218
 11
6.9847015022
 21
4.7088999917
  0
LINE
  5
27D
100
AcDbEntity
  8
0
100
AcDbLine
 62
7
  6
BYLAYER
 10
7.0019388298
 20
3.7921388494
 11
7.00068736
 21
3.8532316056
  0
LINE
  5
27E
100
AcDbEntity
  8
0
100
AcDbLine
 62
7
  6
BYLAYER
 10
7.00068736
 20
3.8532316056
 11
6.9993878169
 21
3.9196408662
  0
LINE
  5
27F
100
AcDbEntity
  8
0
100
AcDbLine
 62
7
  6
BYLAYER
 10
6.9894408545
 20
4.4781606902
 11
6.9868389926
 21
4.6110446218
  0
LINE
  5
280
100
AcDbEntity
  8
0
100
AcDbLine
 62
7
  6
BYLAYER
 10
6.9993878169
 20
3.9196408662
 11
6.9976889547
 21
4.010496597
  0
LINE
  5
281
100
AcDbEntity
  8
0
100
AcDbLine
 62
7
  6
BYLAYER
 10
6.9976889547
 20
4.010496597
 11
6.9958998472
 21
4.1103255131
  0
LINE
  5
282
100
AcDbEntity
  8
0
100
AcDbLine
 62
7
  6
BYLAYER
 10
6.9958998472
 20
4.1103255131
 11
6.9894408545
 21
4.4781606902
  0
LINE
  5
283
100
AcDbEntity
  8
0
100
AcDbLine
 62
7
  6
BYLAYER
 10
6.9408333333
 20
5.15711
 11
6.9408333333
 21
5.0558977286
  0
LWPOLYLINE
  5
284
100
AcDbEntity
  8
0
100
AcDbPolyline
 62
7
  6
BYLAYER
 90
12
 70
0
 10
6.9012412533
 20
5.1513879256
 10
6.8967658398
 20
5.1543506002
 10
6.8893573665
 20
5.1587942265
 10
6.8815387713
 20
5.1629131623
 10
6.8733292504
 20
5.166661132
 10
6.8648027603
 20
5.1699740198
 10
6.856027234
 20
5.1728042553
 10
6.8470801588
 20
5.1751153678
 10
6.8380433801
 20
5.1768886259
 10
6.8290010139
 20
5.1781188284
 10
6.8200642774
 20
5.1788118479
 10
6.8125
 20
5.1789961505
  0
LINE
  5
285
100
AcDbEntity
  8
0
100
AcDbLine
 62
7
  6
BYLAYER
 10
7.0625
 20
3.8706563902
 11
7.0625
 21
4.5952555215
  0
LINE
  5
286
100
AcDbEntity
  8
02___PRT_ALL_AXES
100
AcDbLine
 62
7
  6
BYLAYER
 10
7.0625
 20
5.29211
 11
7.0572826601
 21
4.6336817071
  0
LINE
  5
287
100
AcDbEntity
  8
0
100
AcDbLine
 62
7
  6
BYLAYER
 10
7.0392897678
 20
3.6665362444
 11
7.0424869224
 21
3.7806995708
  0
LINE
  5
288
100
AcDbEntity
  8
0
100
AcDbLine
 62
7
  6
BYLAYER
 10
7.036591938
 20
3.5784894387
 11
7.0392897678
 21
3.6665362444
  0
LINE
  5
289
100
AcDbEntity
  8
0
100
AcDbLine
 62
7
  6
BYLAYER
 10
7.0344807757
 20
3.5161252932
 11
7.036591938
 21
3.5784894387
  0
LINE
  5
28A
100
AcDbEntity
  8
0
100
AcDbLine
 62
7
  6
BYLAYER
 10
7.0325447524
 20
3.464758933
 11
7.0344807757
 21
3.5161252932
  0
LINE
  5
28B
100
AcDbEntity
  8
0
100
AcDbLine
 62
7
  6
BYLAYER
 10
7.0310478982
 20
3.4292522397
 11
7.0325447524
 21
3.464758933
  0
LINE
  5
28C
100
AcDbEntity
  8
0
100
AcDbLine
 62
7
  6
BYLAYER
 10
7.029913017
 20
3.4049421466
 11
7.0310478982
 21
3.4292522397
  0
LINE
  5
28D
100
AcDbEntity
  8
0
100
AcDbLine
 62
7
  6
BYLAYER
 10
7.0288204549
 20
3.3837553352
 11
7.029913017
 21
3.4049421466
  0
LINE
  5
28E
100
AcDbEntity
  8
0
100
AcDbLine
 62
7
  6
BYLAYER
 10
7.0280199281
 20
3.3696452092
 11
7.0288204549
 21
3.3837553352
  0
LINE
  5
28F
100
AcDbEntity
  8
0
100
AcDbLine
 62
7
  6
BYLAYER
 10
7.0272288035
 20
3.3568882775
 11
7.0280199281
 21
3.3696452092
  0
LINE
  5
290
100
AcDbEntity
  8
0
100
AcDbLine
 62
7
  6
BYLAYER
 10
7.0267045324
 20
3.349084456
 11
7.0272288035
 21
3.3568882775
  0
LINE
  5
291
100
AcDbEntity
  8
0
100
AcDbLine
 62
7
  6
BYLAYER
 10
7.0261806683
 20
3.3417996701
 11
7.0267045324
 21
3.349084456
  0
LINE
  5
292
100
AcDbEntity
  8
0
100
AcDbLine
 62
7
  6
BYLAYER
 10
7.0256544952
 20
3.3349906749
 11
7.0261806683
 21
3.3417996701
  0
LINE
  5
293
100
AcDbEntity
  8
0
100
AcDbLine
 62
7
  6
BYLAYER
 10
7.025122185
 20
3.3286070534
 11
7.0256544952
 21
3.3349906749
  0
LINE
  5
294
100
AcDbEntity
  8
0
100
AcDbLine
 62
7
  6
BYLAYER
 10
7.0245783134
 20
3.3225897371
 11
7.025122185
 21
3.3286070534
  0
LINE
  5
295
100
AcDbEntity
  8
0
100
AcDbLine
 62
7
  6
BYLAYER
 10
7.0059871026
 20
3.616636464
 11
7.0625
 21
3.8706563902
  0
LINE
  5
296
100
AcDbEntity
  8
0
100
AcDbLine
 62
7
  6
BYLAYER
 10
6.9408333333
 20
5.15711
 11
6.9570847812
 21
5.0840613369
  0
LINE
  5
297
100
AcDbEntity
  8
0
100
AcDbLine
 62
7
  6
BYLAYER
 10
6.9738081841
 20
5.0088912828
 11
7.0591154863
 21
4.6254433333
  0
LINE
  5
298
100
AcDbEntity
  8
0
100
AcDbLine
 62
7
  6
BYLAYER
 10
7.3125
 20
5.40711
 11
7.3125
 21
5.29211
  0
LINE
  5
299
100
AcDbEntity
  8
0
100
AcDbLine
 62
7
  6
BYLAYER
 10
7.3541666667
 20
4.8237766667
 11
7.3541666667
 21
3.65711
  0
LINE
  5
29A
100
AcDbEntity
  8
0
100
AcDbLine
 62
7
  6
BYLAYER
 10
7.4791666667
 20
4.8237766667
 11
7.4791666667
 21
3.65711
  0
LINE
  5
29B
100
AcDbEntity
  8
0
100
AcDbLine
 62
7
  6
BYLAYER
 10
3.5208333333
 20
12.050144904
 11
3.5208333333
 21
13.3865877626
  0
LINE
  5
29C
100
AcDbEntity
  8
0
100
AcDbLine
 62
7
  6
BYLAYER
 10
3.6291666667
 20
11.9058663346
 11
3.6291666667
 21
13.5308663321
  0
LINE
  5
29D
100
AcDbEntity
  8
0
100
AcDbLine
 62
7
  6
BYLAYER
 10
4.7916666667
 20
11.3016996667
 11
5.125
 21
11.3016996667
  0
LINE
  5
29E
100
AcDbEntity
  8
0
100
AcDbLine
 62
7
  6
BYLAYER
 10
4.7291666667
 20
11.3433663333
 11
4.75
 21
11.3433663333
  0
LINE
  5
29F
100
AcDbEntity
  8
0
100
AcDbLine
 62
7
  6
BYLAYER
 10
5.1666666667
 20
11.3433663333
 11
5.1875
 21
11.3433663333
  0
LWPOLYLINE
  5
2A0
100
AcDbEntity
  8
0
100
AcDbPolyline
 62
7
  6
BYLAYER
 90
50
 70
0
 10
6.8160197042
 20
11.6810031939
 10
6.8214468155
 20
11.6811909098
 10
6.8315357359
 20
11.68197451
 10
6.8415538718
 20
11.6833169784
 10
6.8514395016
 20
11.6852050837
 10
6.8611431085
 20
11.6876217088
 10
6.8706170267
 20
11.6905447445
 10
6.8798181308
 20
11.6939431824
 10
6.8887063181
 20
11.69777962
 10
6.8972452218
 20
11.702013476
 10
6.9054032833
 20
11.7066017986
 10
6.9131495163
 20
11.7114967673
 10
6.9204736107
 20
11.7166564132
 10
6.9273627118
 20
11.7220305245
 10
6.9338239985
 20
11.7275829227
 10
6.9398616114
 20
11.7332762382
 10
6.9454840222
 20
11.739077829
 10
6.9507008295
 20
11.7449572484
 10
6.9555229139
 20
11.750884458
 10
6.9599684321
 20
11.7568361809
 10
6.9640402423
 20
11.7627687165
 10
6.9677499646
 20
11.7686479548
 10
6.9711044309
 20
11.7744295616
 10
6.9741193436
 20
11.7800808477
 10
6.976797435
 20
11.7855399714
 10
6.9791488352
 20
11.7907499249
 10
6.9811931009
 20
11.7956663935
 10
6.9829383823
 20
11.8002108512
 10
6.9844412817
 20
11.8044355404
 10
6.9857310993
 20
11.8083393146
 10
6.986864892
 20
11.8120266661
 10
6.9878915869
 20
11.8156143284
 10
6.9888173995
 20
11.8190935863
 10
6.9896649694
 20
11.8225240051
 10
6.9904230821
 20
11.8258324668
 10
6.9910883635
 20
11.8289611811
 10
6.9916728658
 20
11.8319184113
 10
6.99218106
 20
11.8346775215
 10
6.9926289689
 20
11.8372792339
 10
6.9930272778
 20
11.8397475535
 10
6.9933850333
 20
11.8421063834
 10
6.9937103041
 20
11.844382446
 10
6.994008556
 20
11.84659201
 10
6.9942851838
 20
11.8487568053
 10
6.994543436
 20
11.8508871016
 10
6.9947866499
 20
11.8529975662
 10
6.9950169686
 20
11.8550958996
 10
6.9952364604
 20
11.857191506
 10
6.9954468044
 20
11.8592923778
 10
6.9958458702
 20
11.8635425426
  0
LINE
  5
2A1
100
AcDbEntity
  8
0
100
AcDbLine
 62
7
  6
BYLAYER
 10
6.817079456
 20
11.6810270176
 11
6.8160197041
 21
11.6810031939
  0
LINE
  5
2A2
100
AcDbEntity
  8
0
100
AcDbLine
 62
7
  6
BYLAYER
 10
6.8160197041
 20
11.6810031939
 11
6.8125009672
 21
11.6809687924
  0
LINE
  5
2A3
100
AcDbEntity
  8
0
100
AcDbLine
 62
7
  6
BYLAYER
 10
6.5291666667
 20
11.5891996667
 11
6.7679494333
 21
11.5726329224
  0
LINE
  5
2A4
100
AcDbEntity
  8
0
100
AcDbLine
 62
7
  6
BYLAYER
 10
4.7916666667
 20
11.8580296514
 11
5.125
 21
11.8580296514
  0
LINE
  5
2A5
100
AcDbEntity
  8
0
100
AcDbLine
 62
7
  6
BYLAYER
 10
4.7291666667
 20
11.8826391556
 11
5.1875
 21
11.8826391556
  0
LINE
  5
2A6
100
AcDbEntity
  8
0
100
AcDbLine
 62
7
  6
BYLAYER
 10
3.6291666667
 20
11.9058663333
 11
5.6177083333
 21
11.9058663333
  0
LINE
  5
2A7
100
AcDbEntity
  8
0
100
AcDbLine
 62
7
  6
BYLAYER
 10
4.7916666667
 20
11.9452840285
 11
5.125
 21
11.9452840285
  0
LINE
  5
2A8
100
AcDbEntity
  8
0
100
AcDbLine
 62
7
  6
BYLAYER
 10
4.7291666667
 20
11.9058663333
 11
4.7291666667
 21
11.3433663333
  0
LINE
  5
2A9
100
AcDbEntity
  8
0
100
AcDbLine
 62
7
  6
BYLAYER
 10
4.75
 20
11.933029799
 11
4.75
 21
11.9058663333
  0
LINE
  5
2AA
100
AcDbEntity
  8
0
100
AcDbLine
 62
7
  6
BYLAYER
 10
4.75
 20
11.8151410416
 11
4.75
 21
11.3433663333
  0
LINE
  5
2AB
100
AcDbEntity
  8
0
100
AcDbLine
 62
7
  6
BYLAYER
 10
5.7260416667
 20
11.9668038333
 11
5.6177083333
 21
11.9668038333
  0
LINE
  5
2AC
100
AcDbEntity
  8
0
100
AcDbLine
 62
7
  6
BYLAYER
 10
3.6291666667
 20
11.9668038333
 11
3.6041666667
 21
11.9668038333
  0
LINE
  5
2AD
100
AcDbEntity
  8
0
100
AcDbLine
 62
7
  6
BYLAYER
 10
5.875
 20
12.0074288333
 11
5.7666666667
 21
12.0074288333
  0
LINE
  5
2AE
100
AcDbEntity
  8
0
100
AcDbLine
 62
7
  6
BYLAYER
 10
7.3541666667
 20
12.3740969171
 11
7.0625
 21
12.3485793902
  0
LINE
  5
2AF
100
AcDbEntity
  8
0
100
AcDbLine
 62
7
  6
BYLAYER
 10
7.3541666667
 20
12.135033
 11
7.4791666667
 21
12.135033
  0
LINE
  5
2B0
100
AcDbEntity
  8
0
100
AcDbLine
 62
7
  6
BYLAYER
 10
5.1666666667
 20
11.3433663333
 11
5.1666666667
 21
11.8151410416
  0
LINE
  5
2B1
100
AcDbEntity
  8
0
100
AcDbLine
 62
7
  6
BYLAYER
 10
5.1666666667
 20
11.9058663333
 11
5.1666666667
 21
11.933029799
  0
LINE
  5
2B2
100
AcDbEntity
  8
0
100
AcDbLine
 62
7
  6
BYLAYER
 10
5.1875
 20
11.9058663333
 11
5.1875
 21
11.3433663333
  0
LINE
  5
2B3
100
AcDbEntity
  8
0
100
AcDbLine
 62
7
  6
BYLAYER
 10
5.875
 20
13.3746163333
 11
5.9567708323
 21
13.4160876875
  0
LINE
  5
2B4
100
AcDbEntity
  8
0
100
AcDbLine
 62
7
  6
BYLAYER
 10
5.875
 20
12.0621163333
 11
5.9567708323
 21
12.0206449792
  0
LINE
  5
2B5
100
AcDbEntity
  8
0
100
AcDbLine
 62
7
  6
BYLAYER
 10
6.4473958263
 20
11.7718168542
 11
6.5291666587
 21
11.7303455
  0
LINE
  5
2B6
100
AcDbEntity
  8
0
100
AcDbLine
 62
7
  6
BYLAYER
 10
7.3541666667
 20
12.6141996667
 11
7.0560357873
 21
12.6141996667
  0
LINE
  5
2B7
100
AcDbEntity
  8
0
100
AcDbLine
 62
7
  6
BYLAYER
 10
5.6177083333
 20
13.5308663321
 11
5.6177083333
 21
11.9058663346
  0
LINE
  5
2B8
100
AcDbEntity
  8
0
100
AcDbLine
 62
7
  6
BYLAYER
 10
7.3541666667
 20
12.822533
 11
7.0560357873
 21
12.822533
  0
LINE
  5
2B9
100
AcDbEntity
  8
0
100
AcDbLine
 62
7
  6
BYLAYER
 10
5.7260416667
 20
11.9668038333
 11
5.7260416667
 21
13.4699288333
  0
LINE
  5
2BA
100
AcDbEntity
  8
0
100
AcDbLine
 62
7
  6
BYLAYER
 10
5.7666666667
 20
12.0074288333
 11
5.7666666667
 21
13.4293038333
  0
LINE
  5
2BB
100
AcDbEntity
  8
0
100
AcDbLine
 62
7
  6
BYLAYER
 10
5.875
 20
13.4293038333
 11
5.875
 21
12.0074288334
  0
LINE
  5
2BC
100
AcDbEntity
  8
0
100
AcDbLine
 62
7
  6
BYLAYER
 10
5.9567708323
 20
13.4160876875
 11
5.9567708323
 21
13.2110820691
  0
LINE
  5
2BD
100
AcDbEntity
  8
0
100
AcDbLine
 62
7
  6
BYLAYER
 10
5.9567708323
 20
12.2256505976
 11
5.9567708323
 21
12.0206449792
  0
LINE
  5
2BE
100
AcDbEntity
  8
0
100
AcDbLine
 62
7
  6
BYLAYER
 10
7.3541666667
 20
13.0626357496
 11
7.0625
 21
13.0881532765
  0
LINE
  5
2BF
100
AcDbEntity
  8
0
100
AcDbLine
 62
7
  6
BYLAYER
 10
7.3541666667
 20
13.3016996667
 11
7.4791666667
 21
13.3016996667
  0
LINE
  5
2C0
100
AcDbEntity
  8
0
100
AcDbLine
 62
7
  6
BYLAYER
 10
5.7666666667
 20
13.4293038333
 11
5.7260416667
 21
13.4699288333
  0
LINE
  5
2C1
100
AcDbEntity
  8
0
100
AcDbLine
 62
7
  6
BYLAYER
 10
5.7666666667
 20
12.0074288333
 11
5.7260416667
 21
11.9668038333
  0
LINE
  5
2C2
100
AcDbEntity
  8
0
100
AcDbLine
 62
7
  6
BYLAYER
 10
5.875
 20
13.4293038333
 11
5.7666666667
 21
13.4293038333
  0
LINE
  5
2C3
100
AcDbEntity
  8
0
100
AcDbLine
 62
7
  6
BYLAYER
 10
5.7260416667
 20
13.4699288333
 11
5.6177083333
 21
13.4699288333
  0
LINE
  5
2C4
100
AcDbEntity
  8
0
100
AcDbLine
 62
7
  6
BYLAYER
 10
3.6291666667
 20
13.4699288333
 11
3.6041666667
 21
13.4699288333
  0
LINE
  5
2C5
100
AcDbEntity
  8
0
100
AcDbLine
 62
7
  6
BYLAYER
 10
3.6291666667
 20
13.5308663333
 11
5.6177083333
 21
13.5308663333
  0
LINE
  5
2C6
100
AcDbEntity
  8
0
100
AcDbLine
 62
7
  6
BYLAYER
 10
6.4473958263
 20
11.9109571281
 11
6.4473958263
 21
11.7718168542
  0
LINE
  5
2C7
100
AcDbEntity
  8
0
100
AcDbLine
 62
7
  6
BYLAYER
 10
6.5291666667
 20
11.5891996667
 11
6.5291666667
 21
13.2864819865
  0
LINE
  5
2C8
100
AcDbEntity
  8
0
100
AcDbLine
 62
7
  6
BYLAYER
 10
6.5291666667
 20
13.356093117
 11
6.5291666667
 21
13.4808466812
  0
LINE
  5
2C9
100
AcDbEntity
  8
0
100
AcDbLine
 62
7
  6
BYLAYER
 10
6.8125
 20
13.1983663333
 11
6.8125
 21
11.6141996667
  0
LWPOLYLINE
  5
2CA
100
AcDbEntity
  8
0
100
AcDbPolyline
 62
7
  6
BYLAYER
 90
3
 70
0
 10
6.9902593697
 20
11.8914782765
 10
6.990240491
 20
11.8916575838
 10
6.990210111
 20
11.8919609584
  0
LINE
  5
2CB
100
AcDbEntity
  8
0
100
AcDbLine
 62
7
  6
BYLAYER
 10
6.990210111
 20
11.8919609584
 11
6.9901148171
 21
11.8929822408
  0
LINE
  5
2CC
100
AcDbEntity
  8
0
100
AcDbLine
 62
7
  6
BYLAYER
 10
6.9901148171
 20
11.8929822408
 11
6.9899816179
 21
11.8945369107
  0
LINE
  5
2CD
100
AcDbEntity
  8
0
100
AcDbLine
 62
7
  6
BYLAYER
 10
6.9899816179
 20
11.8945369107
 11
6.9898179577
 21
11.8966083254
  0
LINE
  5
2CE
100
AcDbEntity
  8
0
100
AcDbLine
 62
7
  6
BYLAYER
 10
6.9898179577
 20
11.8966083254
 11
6.9896292927
 21
11.8991863803
  0
LINE
  5
2CF
100
AcDbEntity
  8
0
100
AcDbLine
 62
7
  6
BYLAYER
 10
6.9896292927
 20
11.8991863803
 11
6.9894196685
 21
11.9022660939
  0
LINE
  5
2D0
100
AcDbEntity
  8
0
100
AcDbLine
 62
7
  6
BYLAYER
 10
6.9894196685
 20
11.9022660939
 11
6.9890706631
 21
11.9078535311
  0
LINE
  5
2D1
100
AcDbEntity
  8
0
100
AcDbLine
 62
7
  6
BYLAYER
 10
6.9890706631
 20
11.9078535311
 11
6.9886822818
 21
11.914697285
  0
LINE
  5
2D2
100
AcDbEntity
  8
0
100
AcDbLine
 62
7
  6
BYLAYER
 10
6.9886822818
 20
11.914697285
 11
6.9882546892
 21
11.9229445124
  0
LINE
  5
2D3
100
AcDbEntity
  8
0
100
AcDbLine
 62
7
  6
BYLAYER
 10
6.9882546892
 20
11.9229445124
 11
6.9876284705
 21
11.9362879817
  0
LINE
  5
2D4
100
AcDbEntity
  8
0
100
AcDbLine
 62
7
  6
BYLAYER
 10
6.9876284705
 20
11.9362879817
 11
6.9869494711
 21
11.9523532392
  0
LINE
  5
2D5
100
AcDbEntity
  8
0
100
AcDbLine
 62
7
  6
BYLAYER
 10
6.9869494711
 20
11.9523532392
 11
6.986225389
 21
11.971202673
  0
LINE
  5
2D6
100
AcDbEntity
  8
0
100
AcDbLine
 62
7
  6
BYLAYER
 10
6.986225389
 20
11.971202673
 11
6.985459658
 21
11.9929450281
  0
LINE
  5
2D7
100
AcDbEntity
  8
0
100
AcDbLine
 62
7
  6
BYLAYER
 10
6.985459658
 20
11.9929450281
 11
6.9846548717
 21
12.0176700838
  0
LINE
  5
2D8
100
AcDbEntity
  8
0
100
AcDbLine
 62
7
  6
BYLAYER
 10
6.9846548717
 20
12.0176700838
 11
6.9838130894
 21
12.0454432987
  0
LINE
  5
2D9
100
AcDbEntity
  8
0
100
AcDbLine
 62
7
  6
BYLAYER
 10
6.9838130894
 20
12.0454432987
 11
6.9829338112
 21
12.0763816617
  0
LINE
  5
2DA
100
AcDbEntity
  8
0
100
AcDbLine
 62
7
  6
BYLAYER
 10
6.9829338112
 20
12.0763816617
 11
6.9817762864
 21
12.1198380182
  0
LINE
  5
2DB
100
AcDbEntity
  8
0
100
AcDbLine
 62
7
  6
BYLAYER
 10
6.9817762864
 20
12.1198380182
 11
6.9805460545
 21
12.1690389445
  0
LINE
  5
2DC
100
AcDbEntity
  8
0
100
AcDbLine
 62
7
  6
BYLAYER
 10
6.9805460545
 20
12.1690389445
 11
6.9792342979
 21
12.2244390136
  0
LINE
  5
2DD
100
AcDbEntity
  8
0
100
AcDbLine
 62
7
  6
BYLAYER
 10
6.9792342979
 20
12.2244390136
 11
6.977831873
 21
12.2864472163
  0
LINE
  5
2DE
100
AcDbEntity
  8
0
100
AcDbLine
 62
7
  6
BYLAYER
 10
6.977831873
 20
12.2864472163
 11
6.9760151468
 21
12.3700561963
  0
LINE
  5
2DF
100
AcDbEntity
  8
0
100
AcDbLine
 62
7
  6
BYLAYER
 10
6.9760151468
 20
12.3700561963
 11
6.9733265918
 21
12.4980357308
  0
LINE
  5
2E0
100
AcDbEntity
  8
0
100
AcDbLine
 62
7
  6
BYLAYER
 10
6.9733265918
 20
12.4980357308
 11
6.9705675796
 21
12.630991036
  0
LINE
  5
2E1
100
AcDbEntity
  8
0
100
AcDbLine
 62
7
  6
BYLAYER
 10
6.9408333333
 20
13.2151401139
 11
6.9408333333
 21
12.2996636859
  0
LINE
  5
2E2
100
AcDbEntity
  8
0
100
AcDbLine
 62
7
  6
BYLAYER
 10
7.0625
 20
12.3485793902
 11
7.0625
 21
12.6141996667
  0
LINE
  5
2E3
100
AcDbEntity
  8
0
100
AcDbLine
 62
7
  6
BYLAYER
 10
7.0625
 20
12.822533
 11
7.0625
 21
13.0881532765
  0
LINE
  5
2E4
100
AcDbEntity
  8
0
100
AcDbLine
 62
7
  6
BYLAYER
 10
7.0309492791
 20
13.2299706699
 11
7.0314349413
 21
13.2489733684
  0
LINE
  5
2E5
100
AcDbEntity
  8
0
100
AcDbLine
 62
7
  6
BYLAYER
 10
7.0354432267
 20
13.3927508922
 11
7.0366713752
 21
13.4317240514
  0
LINE
  5
2E6
100
AcDbEntity
  8
0
100
AcDbLine
 62
7
  6
BYLAYER
 10
7.0032196681
 20
12.0174240227
 11
7.0054911783
 21
12.0923303326
  0
LINE
  5
2E7
100
AcDbEntity
  8
0
100
AcDbLine
 62
7
  6
BYLAYER
 10
7.0366713752
 20
13.4317240514
 11
7.0372018027
 21
13.4477432109
  0
LINE
  5
2E8
100
AcDbEntity
  8
0
100
AcDbLine
 62
7
  6
BYLAYER
 10
7.0016942449
 20
11.9738049324
 11
7.0032196681
 21
12.0174240227
  0
LINE
  5
2E9
100
AcDbEntity
  8
0
100
AcDbLine
 62
7
  6
BYLAYER
 10
7.0004982575
 20
11.9437167538
 11
7.0016942449
 21
11.9738049324
  0
LINE
  5
2EA
100
AcDbEntity
  8
0
100
AcDbLine
 62
7
  6
BYLAYER
 10
6.9995674333
 20
11.9229342776
 11
7.0004982575
 21
11.9437167538
  0
LINE
  5
2EB
100
AcDbEntity
  8
0
100
AcDbLine
 62
7
  6
BYLAYER
 10
6.9988545014
 20
11.9086224913
 11
6.9995674333
 21
11.9229342776
  0
LINE
  5
2EC
100
AcDbEntity
  8
0
100
AcDbLine
 62
7
  6
BYLAYER
 10
6.9983316396
 20
11.8990227799
 11
6.9988545014
 21
11.9086224913
  0
LINE
  5
2ED
100
AcDbEntity
  8
0
100
AcDbLine
 62
7
  6
BYLAYER
 10
6.9978131493
 20
11.8902532124
 11
6.9983316396
 21
11.8990227799
  0
LINE
  5
2EE
100
AcDbEntity
  8
0
100
AcDbLine
 62
7
  6
BYLAYER
 10
6.9972937976
 20
11.882211174
 11
6.9978131493
 21
11.8902532124
  0
LINE
  5
2EF
100
AcDbEntity
  8
0
100
AcDbLine
 62
7
  6
BYLAYER
 10
6.9969441319
 20
11.8772078528
 11
6.9972937976
 21
11.882211174
  0
LINE
  5
2F0
100
AcDbEntity
  8
0
100
AcDbLine
 62
7
  6
BYLAYER
 10
6.9965887989
 20
11.87245399
 11
6.9969441319
 21
11.8772078528
  0
LINE
  5
2F1
100
AcDbEntity
  8
0
100
AcDbLine
 62
7
  6
BYLAYER
 10
6.9962243075
 20
11.8679130188
 11
6.9965887989
 21
11.87245399
  0
LINE
  5
2F2
100
AcDbEntity
  8
0
100
AcDbLine
 62
7
  6
BYLAYER
 10
6.9958458702
 20
11.8635425426
 11
6.9962243075
 21
11.8679130188
  0
LINE
  5
2F3
100
AcDbEntity
  8
0
100
AcDbLine
 62
7
  6
BYLAYER
 10
7.0625
 20
12.3485793902
 11
6.9851887682
 21
12.0010729923
  0
LINE
  5
2F4
100
AcDbEntity
  8
0
100
AcDbLine
 62
7
  6
BYLAYER
 10
7.0625
 20
13.0881532765
 11
7.0271876804
 21
13.2468786868
  0
LINE
  5
2F5
100
AcDbEntity
  8
0
100
AcDbLine
 62
7
  6
BYLAYER
 10
7.3541666667
 20
12.135033
 11
7.3541666667
 21
13.3016996667
  0
LINE
  5
2F6
100
AcDbEntity
  8
0
100
AcDbLine
 62
7
  6
BYLAYER
 10
7.4791666667
 20
12.135033
 11
7.4791666667
 21
13.3016996667
  0
LINE
  5
2F7
100
AcDbEntity
  8
0
100
AcDbLine
 62
7
  6
BYLAYER
 10
15.0516666667
 20
4.4503026667
 11
15.0516666667
 21
4.033636
  0
LINE
  5
2F8
100
AcDbEntity
  8
0
100
AcDbLine
 62
7
  6
BYLAYER
 10
15.0933333333
 20
3.9919693333
 11
15.116560511
 21
3.9680609807
  0
LINE
  5
2F9
100
AcDbEntity
  8
0
100
AcDbLine
 62
7
  6
BYLAYER
 10
15.3228296682
 20
4.2149270678
 11
15.0933333333
 21
3.9919693333
  0
LINE
  5
2FA
100
AcDbEntity
  8
0
100
AcDbLine
 62
7
  6
BYLAYER
 10
15.116560511
 20
3.9680609807
 11
15.3248148746
 21
4.1703819508
  0
LINE
  5
2FB
100
AcDbEntity
  8
0
100
AcDbLine
 62
7
  6
BYLAYER
 10
15.3502782387
 20
3.9919693333
 11
15.1411700153
 21
3.9919693333
  0
LINE
  5
2FC
100
AcDbEntity
  8
0
100
AcDbLine
 62
7
  6
BYLAYER
 10
17.2618696083
 20
4.2419693333
 11
17.69
 21
4.2419693333
  0
LINE
  5
2FD
100
AcDbEntity
  8
0
100
AcDbLine
 62
7
  6
BYLAYER
 10
15.0933333333
 20
4.4919693333
 11
15.350159292
 21
4.4919693333
  0
LINE
  5
2FE
100
AcDbEntity
  8
0
100
AcDbLine
 62
7
  6
BYLAYER
 10
16.9483333333
 20
5.293636
 11
16.9483333333
 21
5.408636
  0
LINE
  5
2FF
100
AcDbEntity
  8
0
100
AcDbLine
 62
7
  6
BYLAYER
 10
17.2023153671
 20
4.7911033351
 11
17.1983333333
 21
5.293636
  0
LINE
  5
300
100
AcDbEntity
  8
0
100
AcDbLine
 62
7
  6
BYLAYER
 10
17.9483333333
 20
5.293636
 11
16.9483333333
 21
5.293636
  0
LINE
  5
301
100
AcDbEntity
  8
0
100
AcDbLine
 62
7
  6
BYLAYER
 10
17.69
 20
4.2419693333
 11
17.6983333333
 21
5.293636
  0
LINE
  5
302
100
AcDbEntity
  8
0
100
AcDbLine
 62
7
  6
BYLAYER
 10
17.9483333333
 20
5.408636
 11
16.9483333333
 21
5.408636
  0
LINE
  5
303
100
AcDbEntity
  8
0
100
AcDbLine
 62
7
  6
BYLAYER
 10
17.9483333333
 20
5.293636
 11
17.9483333333
 21
5.408636
  0
LINE
  5
304
100
AcDbEntity
  8
0
100
AcDbLine
 62
7
  6
BYLAYER
 10
15.9051345153
 20
11.1836248574
 11
15.5981141839
 21
11.1836248574
  0
LINE
  5
305
100
AcDbEntity
  8
0
100
AcDbLine
 62
7
  6
BYLAYER
 10
15.5532579496
 20
11.1993911087
 11
15.5656276188
 21
11.1993911087
  0
LINE
  5
306
100
AcDbEntity
  8
0
100
AcDbLine
 62
7
  6
BYLAYER
 10
15.9376010723
 20
11.1993911087
 11
15.9754109052
 21
11.1993911087
  0
LINE
  5
307
100
AcDbEntity
  8
0
100
AcDbLine
 62
7
  6
BYLAYER
 10
15.9754109052
 20
11.1993911087
 11
15.9883264712
 21
11.2027239117
  0
LWPOLYLINE
  5
308
100
AcDbEntity
  8
0
100
AcDbPolyline
 62
7
  6
BYLAYER
 90
29
 70
0
 10
17.7508032901
 20
11.3746880415
 10
17.767754133
 20
11.3751160275
 10
17.7871090865
 20
11.3766519
 10
17.8064067838
 20
11.3792989443
 10
17.8256627209
 20
11.3830634106
 10
17.8448608618
 20
11.3879548473
 10
17.8640382159
 20
11.3940058757
 10
17.883227592
 20
11.4012621209
 10
17.902425032
 20
11.4097653895
 10
17.9216448193
 20
11.4195766121
 10
17.9408654437
 20
11.4307501812
 10
17.9600775789
 20
11.4433552131
 10
17.9792716301
 20
11.4574708744
 10
17.9985006878
 20
11.4732377539
 10
18.0175733319
 20
11.4905950903
 10
18.0363755694
 20
11.5095078343
 10
18.0548075416
 20
11.5299238801
 10
18.0727669078
 20
11.5517545858
 10
18.0902206214
 20
11.5749671561
 10
18.1071197887
 20
11.5994922764
 10
18.1234392589
 20
11.6252753519
 10
18.1391467743
 20
11.652235298
 10
18.1542239345
 20
11.6802997941
 10
18.1686431797
 20
11.7093654777
 10
18.1824076977
 20
11.7393789413
 10
18.1955121377
 20
11.7702653378
 10
18.2079517499
 20
11.8019443214
 10
18.2197203044
 20
11.8343234772
 10
18.2245452315
 20
11.8486691527
  0
LINE
  5
309
100
AcDbEntity
  8
0
100
AcDbLine
 62
7
  6
BYLAYER
 10
15.9959869286
 20
11.3781654431
 11
16.6438099341
 21
11.3781654431
  0
LINE
  5
30A
100
AcDbEntity
  8
03___PRT_ALL_CURVES
100
AcDbLine
 62
7
  6
BYLAYER
 10
17.7505574217
 20
11.3746882373
 11
17.7508026785
 21
11.3746880415
  0
LINE
  5
30B
100
AcDbEntity
  8
0
100
AcDbLine
 62
7
  6
BYLAYER
 10
17.4548500426
 20
11.3031873337
 11
17.6745942938
 21
11.2866277184
  0
LINE
  5
30C
100
AcDbEntity
  8
0
100
AcDbLine
 62
7
  6
BYLAYER
 10
15.5607086984
 20
11.2069355778
 11
15.4336079206
 21
11.4659397313
  0
LINE
  5
30D
100
AcDbEntity
  8
0
100
AcDbLine
 62
7
  6
BYLAYER
 10
16.0020698422
 20
11.3978497587
 11
16.634150275
 21
11.3978497587
  0
LINE
  5
30E
100
AcDbEntity
  8
0
100
AcDbLine
 62
7
  6
BYLAYER
 10
16.062586423
 20
11.5936814861
 11
16.6946668558
 21
11.5936814861
  0
LINE
  5
30F
100
AcDbEntity
  8
0
100
AcDbLine
 62
7
  6
BYLAYER
 10
14.7966715842
 20
11.6193681015
 11
15.4691431429
 21
11.6193681015
  0
LINE
  5
310
100
AcDbEntity
  8
0
100
AcDbLine
 62
7
  6
BYLAYER
 10
16.0705241875
 20
11.6193681015
 11
16.6282397483
 21
11.6193681015
  0
LINE
  5
311
100
AcDbEntity
  8
0
100
AcDbLine
 62
7
  6
BYLAYER
 10
16.728021356
 20
11.6803056015
 11
16.6282397483
 21
11.6803056015
  0
LINE
  5
312
100
AcDbEntity
  8
0
100
AcDbLine
 62
7
  6
BYLAYER
 10
16.8652210666
 20
11.7209306015
 11
16.7654394589
 21
11.7209306015
  0
LINE
  5
313
100
AcDbEntity
  8
0
100
AcDbLine
 62
7
  6
BYLAYER
 10
15.5239837571
 20
11.9474846765
 11
15.5292164264
 21
11.8137653182
  0
LINE
  5
314
100
AcDbEntity
  8
0
100
AcDbLine
 62
7
  6
BYLAYER
 10
15.5522915181
 20
11.2240879879
 11
15.5532579496
 21
11.1993911087
  0
LINE
  5
315
100
AcDbEntity
  8
0
100
AcDbLine
 62
7
  6
BYLAYER
 10
18.2276237869
 20
11.8485347682
 11
18.3427564111
 21
11.8485347682
  0
LINE
  5
316
100
AcDbEntity
  8
0
100
AcDbLine
 62
7
  6
BYLAYER
 10
18.0493902315
 20
12.0704214889
 11
17.9643075686
 21
12.062334222
  0
LINE
  5
317
100
AcDbEntity
  8
0
100
AcDbLine
 62
7
  6
BYLAYER
 10
15.5828859856
 20
11.9133457193
 11
15.8899063169
 21
11.9133457193
  0
LINE
  5
318
100
AcDbEntity
  8
0
100
AcDbLine
 62
7
  6
BYLAYER
 10
15.5239837571
 20
11.9474846765
 11
15.9461367127
 21
11.9474846765
  0
LINE
  5
319
100
AcDbEntity
  8
0
100
AcDbLine
 62
7
  6
BYLAYER
 10
15.5368993232
 20
11.9508174795
 11
15.9590522788
 21
11.9508174795
  0
LINE
  5
31A
100
AcDbEntity
  8
0
100
AcDbLine
 62
7
  6
BYLAYER
 10
15.6040073319
 20
11.9816944208
 11
15.9110276632
 21
11.9816944208
  0
LINE
  5
31B
100
AcDbEntity
  8
0
100
AcDbLine
 62
7
  6
BYLAYER
 10
16.810423215
 20
11.7908823471
 11
16.8822762194
 21
11.7503756084
  0
LINE
  5
31C
100
AcDbEntity
  8
0
100
AcDbLine
 62
7
  6
BYLAYER
 10
15.930612048
 20
11.8538495017
 11
15.9538939448
 21
11.2588873262
  0
LINE
  5
31D
100
AcDbEntity
  8
0
100
AcDbLine
 62
7
  6
BYLAYER
 10
15.9461367127
 20
11.9474846765
 11
15.9754109052
 21
11.1993911087
  0
LINE
  5
31E
100
AcDbEntity
  8
0
100
AcDbLine
 62
7
  6
BYLAYER
 10
15.9883264712
 20
11.2027239117
 11
15.9590522788
 21
11.9508174795
  0
LINE
  5
31F
100
AcDbEntity
  8
0
100
AcDbLine
 62
7
  6
BYLAYER
 10
15.5752777768
 20
11.9628199027
 11
15.5715687475
 21
11.9508174795
  0
LINE
  5
320
100
AcDbEntity
  8
0
100
AcDbLine
 62
7
  6
BYLAYER
 10
15.5503360803
 20
11.8821085431
 11
15.4312042043
 21
11.4965976513
  0
LINE
  5
321
100
AcDbEntity
  8
0
100
AcDbLine
 62
7
  6
BYLAYER
 10
15.9590522788
 20
11.9508174795
 11
15.9461367127
 21
11.9474846765
  0
LINE
  5
322
100
AcDbEntity
  8
0
100
AcDbLine
 62
7
  6
BYLAYER
 10
15.5368993232
 20
11.9508174795
 11
15.5239837571
 21
11.9474846765
  0
LINE
  5
323
100
AcDbEntity
  8
0
100
AcDbLine
 62
7
  6
BYLAYER
 10
16.634150275
 20
11.3978497587
 11
16.6438099341
 21
11.3781654431
  0
LINE
  5
324
100
AcDbEntity
  8
0
100
AcDbLine
 62
7
  6
BYLAYER
 10
18.0089727279
 20
12.5895913862
 11
17.8103707021
 21
12.5895913862
  0
LINE
  5
325
100
AcDbEntity
  8
0
100
AcDbLine
 62
7
  6
BYLAYER
 10
16.0890172896
 20
11.6792118016
 11
15.9830938019
 21
11.3364432699
  0
LINE
  5
326
100
AcDbEntity
  8
0
100
AcDbLine
 62
7
  6
BYLAYER
 10
15.9503944984
 20
11.2306282848
 11
15.9449437171
 21
11.2129895502
  0
LINE
  5
327
100
AcDbEntity
  8
0
100
AcDbLine
 62
7
  6
BYLAYER
 10
16.810423215
 20
13.0728538559
 11
17.1773222278
 21
13.2796911699
  0
LINE
  5
328
100
AcDbEntity
  8
0
100
AcDbLine
 62
7
  6
BYLAYER
 10
18.0379461589
 20
12.7527844924
 11
17.8608011862
 21
12.7527844924
  0
LINE
  5
329
100
AcDbEntity
  8
0
100
AcDbLine
 62
7
  6
BYLAYER
 10
16.6927251729
 20
11.6369989667
 11
16.6946668558
 21
11.5936814861
  0
LINE
  5
32A
100
AcDbEntity
  8
0
100
AcDbLine
 62
7
  6
BYLAYER
 10
16.7075016415
 20
11.5842718837
 11
16.7048313562
 21
11.6438439345
  0
LINE
  5
32B
100
AcDbEntity
  8
0
100
AcDbLine
 62
7
  6
BYLAYER
 10
18.0493412482
 20
12.79331937
 11
17.9643075686
 21
12.801401981
  0
LINE
  5
32C
100
AcDbEntity
  8
0
100
AcDbLine
 62
7
  6
BYLAYER
 10
18.2276237869
 20
13.0152014348
 11
18.3427564111
 21
13.0152014348
  0
LINE
  5
32D
100
AcDbEntity
  8
0
100
AcDbLine
 62
7
  6
BYLAYER
 10
17.0466842988
 20
12.1065276803
 11
17.0467834333
 21
12.1056263491
  0
LINE
  5
32E
100
AcDbEntity
  8
0
100
AcDbLine
 62
7
  6
BYLAYER
 10
16.6946668558
 20
11.5936814861
 11
16.634150275
 21
11.3978497587
  0
LINE
  5
32F
100
AcDbEntity
  8
0
100
AcDbLine
 62
7
  6
BYLAYER
 10
16.8652210666
 20
13.1428056015
 11
16.7654394589
 21
13.1428056015
  0
LINE
  5
330
100
AcDbEntity
  8
0
100
AcDbLine
 62
7
  6
BYLAYER
 10
16.728021356
 20
13.1834306015
 11
16.6282397483
 21
13.1834306015
  0
LINE
  5
331
100
AcDbEntity
  8
0
100
AcDbLine
 62
7
  6
BYLAYER
 10
14.7966715842
 20
13.2443681015
 11
16.6282397483
 21
13.2443681015
  0
LINE
  5
332
100
AcDbEntity
  8
0
100
AcDbLine
 62
7
  6
BYLAYER
 10
17.0466779878
 20
12.106522804
 11
17.0467832055
 21
12.1056261726
  0
LINE
  5
333
100
AcDbEntity
  8
0
100
AcDbLine
 62
7
  6
BYLAYER
 10
16.6438099341
 20
11.3781654431
 11
16.7075016415
 21
11.5842718837
  0
LINE
  5
334
100
AcDbEntity
  8
0
100
AcDbLine
 62
7
  6
BYLAYER
 10
16.7488542814
 20
11.6826627579
 11
16.747963766
 21
11.6797810491
  0
LINE
  5
335
100
AcDbEntity
  8
0
100
AcDbLine
 62
7
  6
BYLAYER
 10
17.7287157484
 20
13.3485347682
 11
17.846918576
 21
13.3485347682
  0
LINE
  5
336
100
AcDbEntity
  8
0
100
AcDbLine
 62
7
  6
BYLAYER
 10
16.9719609637
 20
11.7388288074
 11
17.058539018
 21
12.0189954938
  0
LINE
  5
337
100
AcDbEntity
  8
0
100
AcDbLine
 62
7
  6
BYLAYER
 10
17.1611927409
 20
13.7044687481
 11
17.1962725556
 21
13.6329836018
  0
LINE
  5
338
100
AcDbEntity
  8
0
100
AcDbLine
 62
7
  6
BYLAYER
 10
17.6726678313
 20
13.4809058043
 11
17.7386938581
 21
13.3485347682
  0
LINE
  5
339
100
AcDbEntity
  8
0
100
AcDbLine
 62
7
  6
BYLAYER
 10
18.0642899147
 20
13.0545625298
 11
18.0642379251
 21
13.0534664194
  0
LINE
  5
33A
100
AcDbEntity
  8
02___PRT_ALL_AXES
100
AcDbLine
 62
7
  6
BYLAYER
 10
18.0045949024
 20
13.6801092287
 11
18.1835193821
 21
13.3046969366
  0
LWPOLYLINE
  5
33B
100
AcDbEntity
  8
0
100
AcDbPolyline
 62
7
  6
BYLAYER
 90
10
 70
0
 10
18.2778578711
 20
13.0152014348
 10
18.2723181552
 20
13.0399927801
 10
18.2638052332
 20
13.074678887
 10
18.2545953814
 20
13.1089424911
 10
18.2446603342
 20
13.1427597495
 10
18.2339676623
 20
13.1761033473
 10
18.222479631
 20
13.2089439616
 10
18.210148388
 20
13.2412597803
 10
18.196909112
 20
13.2730452146
 10
18.1897790552
 20
13.2887307563
  0
LINE
  5
33C
100
AcDbEntity
  8
0
100
AcDbLine
 62
7
  6
BYLAYER
 10
18.0589243944
 20
14.145011457
 11
18.094004209
 21
14.0735263107
  0
ARC
  5
33D
100
AcDbEntity
  8
0
100
AcDbCircle
 62
7
  6
BYLAYER
 10
3.6041666667
 20
3.5722141667
 40
0.0833333333
100
AcDbArc
 50
180.0
 51
208.7670733493
  0
ARC
  5
33E
100
AcDbEntity
  8
0
100
AcDbCircle
 62
7
  6
BYLAYER
 10
3.6041666667
 20
4.9086725
 40
0.0833333333
100
AcDbArc
 50
90.0
 51
180.0
  0
ARC
  5
33F
100
AcDbEntity
  8
0
100
AcDbCircle
 62
7
  6
BYLAYER
 10
6.7708333333
 20
5.34461
 40
0.0416666667
100
AcDbArc
 50
0.0
 51
93.9688202841
  0
ARC
  5
340
100
AcDbEntity
  8
0
100
AcDbCircle
 62
7
  6
BYLAYER
 10
6.7708333333
 20
3.1362766667
 40
0.0416666667
100
AcDbArc
 50
266.0311797159
 51
330.117147916
  0
ARC
  5
341
100
AcDbEntity
  8
0
100
AcDbCircle
 62
7
  6
BYLAYER
 10
4.7916666667
 20
4.4487766667
 40
0.0416666667
100
AcDbArc
 50
90.0
 51
180.0
  0
ARC
  5
342
100
AcDbEntity
  8
0
100
AcDbCircle
 62
7
  6
BYLAYER
 10
5.125
 20
4.4487766667
 40
0.0416666667
100
AcDbArc
 50
0.0
 51
90.0
  0
ARC
  5
343
100
AcDbEntity
  8
0
100
AcDbCircle
 62
7
  6
BYLAYER
 10
4.7916666667
 20
4.03211
 40
0.0416666667
100
AcDbArc
 50
180.0
 51
270.0
  0
ARC
  5
344
100
AcDbEntity
  8
0
100
AcDbCircle
 62
7
  6
BYLAYER
 10
5.125
 20
4.03211
 40
0.0416666667
100
AcDbArc
 50
270.0
 51
360.0
  0
ARC
  5
345
100
AcDbEntity
  8
0
100
AcDbCircle
 62
7
  6
BYLAYER
 10
5.2959076019
 20
12.7183663333
 40
1.7632035382
100
AcDbArc
 50
356.6131119502
 51
3.3868880498
  0
CIRCLE
  5
346
100
AcDbEntity
  8
0
100
AcDbCircle
 62
7
  6
BYLAYER
 10
6.8125
 20
13.6983663333
 40
0.5
  0
CIRCLE
  5
347
100
AcDbEntity
  8
03___PRT_ALL_CURVES
100
AcDbCircle
 62
7
  6
BYLAYER
 10
6.8125
 20
13.6983663333
 40
0.3958333333
  0
CIRCLE
  5
348
100
AcDbEntity
  8
0
100
AcDbCircle
 62
7
  6
BYLAYER
 10
6.8125
 20
13.6983663333
 40
0.1666666667
  0
CIRCLE
  5
349
100
AcDbEntity
  8
0
100
AcDbCircle
 62
7
  6
BYLAYER
 10
6.8125
 20
13.6983663333
 40
0.1574220814
  0
ARC
  5
34A
100
AcDbEntity
  8
0
100
AcDbCircle
 62
7
  6
BYLAYER
 10
3.6041666667
 20
13.3865955
 40
0.0833333333
100
AcDbArc
 50
90.0
 51
180.0
  0
ARC
  5
34B
100
AcDbEntity
  8
0
100
AcDbCircle
 62
7
  6
BYLAYER
 10
3.6041666667
 20
12.0501371667
 40
0.0833333333
100
AcDbArc
 50
180.0
 51
270.0
  0
CIRCLE
  5
34C
100
AcDbEntity
  8
02___PRT_ALL_AXES
100
AcDbCircle
 62
7
  6
BYLAYER
 10
7.0923964342
 20
13.4184698991
 40
0.0625
  0
CIRCLE
  5
34D
100
AcDbEntity
  8
02___PRT_ALL_AXES
100
AcDbCircle
 62
7
  6
BYLAYER
 10
6.5326035658
 20
13.4184698991
 40
0.0625
  0
CIRCLE
  5
34E
100
AcDbEntity
  8
02___PRT_ALL_AXES
100
AcDbCircle
 62
7
  6
BYLAYER
 10
6.5326035658
 20
13.9782627676
 40
0.0625
  0
CIRCLE
  5
34F
100
AcDbEntity
  8
02___PRT_ALL_AXES
100
AcDbCircle
 62
7
  6
BYLAYER
 10
7.0923964342
 20
13.9782627676
 40
0.0625
  0
ARC
  5
350
100
AcDbEntity
  8
0
100
AcDbCircle
 62
7
  6
BYLAYER
 10
6.7708333333
 20
11.6141996667
 40
0.0416666667
100
AcDbArc
 50
266.0311797159
 51
360.0
  0
ARC
  5
351
100
AcDbEntity
  8
0
100
AcDbCircle
 62
7
  6
BYLAYER
 10
5.125
 20
11.3433663333
 40
0.0416666667
100
AcDbArc
 50
270.0
 51
360.0
  0
ARC
  5
352
100
AcDbEntity
  8
0
100
AcDbCircle
 62
7
  6
BYLAYER
 10
4.7916666667
 20
11.3433663333
 40
0.0416666667
100
AcDbArc
 50
180.0
 51
270.0
  0
CIRCLE
  5
353
100
AcDbEntity
  8
02___PRT_ALL_AXES
100
AcDbCircle
 62
7
  6
BYLAYER
 10
7.2291666667
 20
12.7183663333
 40
0.0409666667
  0
CIRCLE
  5
354
100
AcDbEntity
  8
02___PRT_ALL_AXES
100
AcDbCircle
 62
7
  6
BYLAYER
 10
7.2291666667
 20
12.7183663333
 40
0.0389432641
  0
ARC
  5
355
100
AcDbEntity
  8
0
100
AcDbCircle
 62
7
  6
BYLAYER
 10
16.4683333333
 20
4.2419693333
 40
1.1458333333
100
AcDbArc
 50
50.3372535181
 51
283.0437747307
  0
ARC
  5
356
100
AcDbEntity
  8
0
100
AcDbCircle
 62
7
  6
BYLAYER
 10
16.5596345628
 20
4.2419693333
 40
1.1286987705
100
AcDbArc
 50
180.0000000001
 51
359.9999999999
  0
ARC
  5
357
100
AcDbEntity
  8
03___PRT_ALL_CURVES
100
AcDbCircle
 62
7
  6
BYLAYER
 10
16.5596345628
 20
4.2419693333
 40
1.1286987705
100
AcDbArc
 50
180.0
 51
360.0
  0
ARC
  5
358
100
AcDbEntity
  8
0
100
AcDbCircle
 62
7
  6
BYLAYER
 10
16.3694886095
 20
4.2419693333
 40
0.9385528171
100
AcDbArc
 50
74.2466979653
 51
180.0000000001
  0
ARC
  5
359
100
AcDbEntity
  8
03___PRT_ALL_CURVES
100
AcDbCircle
 62
7
  6
BYLAYER
 10
16.3694886095
 20
4.2419693333
 40
0.9385528171
100
AcDbArc
 50
74.2466719226
 51
180.0
  0
ARC
  5
35A
100
AcDbEntity
  8
0
100
AcDbCircle
 62
7
  6
BYLAYER
 10
16.4683333333
 20
4.2419693333
 40
0.9166666667
100
AcDbArc
 50
32.7911911273
 51
117.1786532487
  0
ARC
  5
35B
100
AcDbEntity
  8
0
100
AcDbCircle
 62
7
  6
BYLAYER
 10
16.2956590439
 20
4.3139415402
 40
0.7831319924
100
AcDbArc
 50
101.0811624033
 51
108.3100812641
  0
CIRCLE
  5
35C
100
AcDbEntity
  8
0
100
AcDbCircle
 62
7
  6
BYLAYER
 10
16.4683333333
 20
4.2419693333
 40
0.5833333333
  0
ARC
  5
35D
100
AcDbEntity
  8
03___PRT_ALL_CURVES
100
AcDbCircle
 62
7
  6
BYLAYER
 10
16.4683333333
 20
4.2419693333
 40
0.4583333333
100
AcDbArc
 50
217.1804549777
 51
232.8183196064
  0
ARC
  5
35E
100
AcDbEntity
  8
03___PRT_ALL_CURVES
100
AcDbCircle
 62
7
  6
BYLAYER
 10
16.4683333333
 20
4.2419693333
 40
0.4583333333
100
AcDbArc
 50
307.1816803936
 51
322.8195450223
  0
ARC
  5
35F
100
AcDbEntity
  8
03___PRT_ALL_CURVES
100
AcDbCircle
 62
7
  6
BYLAYER
 10
16.4683333333
 20
4.2419693333
 40
0.4583333333
100
AcDbArc
 50
37.1804549777
 51
52.8183196064
  0
ARC
  5
360
100
AcDbEntity
  8
03___PRT_ALL_CURVES
100
AcDbCircle
 62
7
  6
BYLAYER
 10
16.4683333333
 20
4.2419693333
 40
0.4583333333
100
AcDbArc
 50
127.1816803936
 51
142.8195450223
  0
CIRCLE
  5
361
100
AcDbEntity
  8
0
100
AcDbCircle
 62
7
  6
BYLAYER
 10
16.4683333333
 20
4.2419693333
 40
0.2158333333
  0
CIRCLE
  5
362
100
AcDbEntity
  8
02___PRT_ALL_AXES
100
AcDbCircle
 62
7
  6
BYLAYER
 10
16.7924239414
 20
4.5660599414
 40
0.0625
  0
CIRCLE
  5
363
100
AcDbEntity
  8
02___PRT_ALL_AXES
100
AcDbCircle
 62
7
  6
BYLAYER
 10
16.1442427253
 20
4.5660599414
 40
0.0625
  0
CIRCLE
  5
364
100
AcDbEntity
  8
02___PRT_ALL_AXES
100
AcDbCircle
 62
7
  6
BYLAYER
 10
16.1442427253
 20
3.9178787253
 40
0.0625
  0
CIRCLE
  5
365
100
AcDbEntity
  8
02___PRT_ALL_AXES
100
AcDbCircle
 62
7
  6
BYLAYER
 10
16.7924239414
 20
3.9178787253
 40
0.0625
  0
ARC
  5
366
100
AcDbEntity
  8
0
100
AcDbCircle
 62
7
  6
BYLAYER
 10
15.0933333333
 20
4.4503026667
 40
0.0416666667
100
AcDbArc
 50
90.0
 51
180.0
  0
ARC
  5
367
100
AcDbEntity
  8
0
100
AcDbCircle
 62
7
  6
BYLAYER
 10
15.0933333333
 20
4.033636
 40
0.0416666667
100
AcDbArc
 50
180.0
 51
270.0
  0
ARC
  5
368
100
AcDbEntity
  8
0
100
AcDbCircle
 62
7
  6
BYLAYER
 10
19.0851427731
 20
12.3971225025
 40
2.0594617013
100
AcDbArc
 50
188.1128499472
 51
188.4636205435
  0
ARC
  5
369
100
AcDbEntity
  8
0
100
AcDbCircle
 62
7
  6
BYLAYER
 10
18.0699020437
 20
13.2505455028
 40
0.125862092
100
AcDbArc
 50
24.9310423804
 51
25.4834815052
  0
ARC
  5
36A
100
AcDbEntity
  8
0
100
AcDbCircle
 62
7
  6
BYLAYER
 10
16.7279400319
 20
11.7959854118
 40
0.1156789281
100
AcDbArc
 50
270.0402798477
 51
279.7873373296
  0
ARC
  5
36B
100
AcDbEntity
  8
0
100
AcDbCircle
 62
7
  6
BYLAYER
 10
15.5981203508
 20
11.2253566647
 40
0.0417318041
100
AcDbArc
 50
259.158299889
 51
269.9927314614
  0
ARC
  5
36C
100
AcDbEntity
  8
0
100
AcDbCircle
 62
7
  6
BYLAYER
 10
15.471044848
 20
11.4842979864
 40
0.0416962467
100
AcDbArc
 50
162.8318922682
 51
206.1057891077
  0
ARC
  5
36D
100
AcDbEntity
  8
0
100
AcDbCircle
 62
7
  6
BYLAYER
 10
15.5981183312
 20
11.2252968548
 40
0.041672539
100
AcDbArc
 50
206.142580951
 51
259.1455594238
  0
ARC
  5
36E
100
AcDbEntity
  8
0
100
AcDbCircle
 62
7
  6
BYLAYER
 10
15.9051343673
 20
11.2252919242
 40
0.0416670527
100
AcDbArc
 50
270.0002034834
 51
342.8242883588
  0
LINE
  5
36F
100
AcDbEntity
  8
0
100
AcDbLine
 62
7
  6
BYLAYER
 10
7.0560357873
 20
4.6254433333
 11
7.0625
 21
4.5952555215
  0
SPLINE
  5
370
100
AcDbEntity
  8
0
100
AcDbSpline
 62
7
  6
BYLAYER
 70
0
 71
3
 72
26
 73
22
 74
0
 42
0.0000001
 43
0.0000001
 44
0.0000000001
 40
0.0
 40
0.0
 40
0.0
 40
0.0
 40
0.0432712606
 40
0.0605539961
 40
0.0752756936
 40
0.0878009374
 40
0.0986463903
 40
0.1085280036
 40
0.1183200323
 40
0.1288757369
 40
0.1408540692
 40
0.1546885428
 40
0.1706429458
 40
0.2094573073
 40
0.2579737837
 40
0.3163981858
 40
0.384769275
 40
0.4630493184
 40
0.551164684
 40
0.7565185861
 40
1.0
 40
1.0
 40
1.0
 40
1.0
 10
6.9536456961
 20
5.0913287216
 30
0.0
 10
6.9533470001
 20
5.0919183419
 30
0.0
 10
6.9528928466
 20
5.0927291759
 30
0.0
 10
6.9521957825
 20
5.0936459294
 30
0.0
 10
6.9517209411
 20
5.094135946
 30
0.0
 10
6.9512512801
 20
5.094485109
 30
0.0
 10
6.9507823573
 20
5.09469396
 30
0.0
 10
6.950313115
 20
5.0947572729
 30
0.0
 10
6.9498518942
 20
5.0946720503
 30
0.0
 10
6.9494066338
 20
5.0944465936
 30
0.0
 10
6.9489757653
 20
5.0940907797
 30
0.0
 10
6.9485549143
 20
5.0936085788
 30
0.0
 10
6.9479647612
 20
5.0927404468
 30
0.0
 10
6.9472643374
 20
5.0913200052
 30
0.0
 10
6.9464867135
 20
5.0892321664
 30
0.0
 10
6.9457250557
 20
5.086663124
 30
0.0
 10
6.9449786821
 20
5.0836200855
 30
0.0
 10
6.9442473785
 20
5.0801088154
 30
0.0
 10
6.9432402196
 20
5.0745199127
 30
0.0
 10
6.9420499816
 20
5.0664029693
 30
0.0
 10
6.9412393553
 20
5.0595946439
 30
0.0
 10
6.9408333333
 20
5.0558977286
 30
0.0
  0
SPLINE
  5
371
100
AcDbEntity
  8
0
100
AcDbSpline
 62
7
  6
BYLAYER
 70
0
 71
3
 72
17
 73
13
 74
0
 42
0.0000001
 43
0.0000001
 44
0.0000000001
 40
0.0
 40
0.0
 40
0.0
 40
0.0
 40
0.1762960008
 40
0.2586570003
 40
0.337141582
 40
0.4825249803
 40
0.6126919759
 40
0.7281531022
 40
0.8298724906
 40
0.876098992
 40
0.9196051219
 40
1.0
 40
1.0
 40
1.0
 40
1.0
 10
6.9408333333
 20
5.0558977286
 30
0.0
 10
6.9396653334
 20
5.0619789029
 30
0.0
 10
6.9378290892
 20
5.0708788029
 30
0.0
 10
6.9351171264
 20
5.0824067538
 30
0.0
 10
6.932440933
 20
5.0928252473
 30
0.0
 10
6.928946977
 20
5.1047654034
 30
0.0
 10
6.9243248111
 20
5.1177093905
 30
0.0
 10
6.9193489436
 20
5.1288644386
 30
0.0
 10
6.9147247608
 20
5.1369070713
 30
0.0
 10
6.9107615446
 20
5.1423489968
 30
0.0
 10
6.9068625052
 20
5.1468809315
 30
0.0
 10
6.9035690794
 20
5.1497893678
 30
0.0
 10
6.9012412734
 20
5.1513879231
 30
0.0
  0
SPLINE
  5
372
100
AcDbEntity
  8
0
100
AcDbSpline
 62
7
  6
BYLAYER
 70
0
 71
3
 72
17
 73
13
 74
0
 42
0.0000001
 43
0.0000001
 44
0.0000000001
 40
0.0
 40
0.0
 40
0.0
 40
0.0
 40
0.1860258955
 40
0.3545354245
 40
0.5054327292
 40
0.5742730253
 40
0.6387129169
 40
0.7544362964
 40
0.8528124153
 40
0.9343095351
 40
0.9690349487
 40
1.0
 40
1.0
 40
1.0
 40
1.0
 10
6.8125
 20
3.1659661834
 30
0.0
 10
6.8125
 20
3.1627983049
 30
0.0
 10
6.8124552025
 20
3.1567606432
 30
0.0
 10
6.8122254193
 20
3.1481559955
 30
0.0
 10
6.8118889081
 20
3.1415520464
 30
0.0
 10
6.8115239418
 20
3.1367262213
 30
0.0
 10
6.8111254182
 20
3.1325045533
 30
0.0
 10
6.8105345745
 20
3.1277958477
 30
0.0
 10
6.8096141249
 20
3.1228439469
 30
0.0
 10
6.8086411275
 20
3.1193121906
 30
0.0
 10
6.8077229573
 20
3.1169775999
 30
0.0
 10
6.8072229635
 20
3.115974362
 30
0.0
 10
6.8069602491
 20
3.115517155
 30
0.0
  0
LINE
  5
373
100
AcDbEntity
  8
0
100
AcDbLine
 62
7
  6
BYLAYER
 10
7.3541666667
 20
4.568575527
 11
7.0625
 21
4.5952555215
  0
SPLINE
  5
374
100
AcDbEntity
  8
0
100
AcDbSpline
 62
7
  6
BYLAYER
 70
0
 71
3
 72
11
 73
7
 74
0
 42
0.0000001
 43
0.0000001
 44
0.0000000001
 40
0.0
 40
0.0
 40
0.0
 40
0.0
 40
0.2499980348
 40
0.4999976649
 40
0.7499989547
 40
1.0
 40
1.0
 40
1.0
 40
1.0
 10
5.9567708323
 20
12.2256505976
 30
0.0
 10
5.9962339633
 20
12.1973088308
 30
0.0
 10
6.0763040603
 20
12.1422128649
 30
0.0
 10
6.1985862621
 20
12.0628682053
 30
0.0
 10
6.3223793132
 20
11.9859064172
 30
0.0
 10
6.4056334157
 20
11.9357876005
 30
0.0
 10
6.4473958263
 20
11.9109571281
 30
0.0
  0
SPLINE
  5
375
100
AcDbEntity
  8
0
100
AcDbSpline
 62
7
  6
BYLAYER
 70
0
 71
3
 72
11
 73
7
 74
0
 42
0.0000001
 43
0.0000001
 44
0.0000000001
 40
0.0
 40
0.0
 40
0.0
 40
0.0
 40
0.2499992362
 40
0.4999995779
 40
0.7499992092
 40
1.0
 40
1.0
 40
1.0
 40
1.0
 10
5.9567708323
 20
13.2110820691
 30
0.0
 10
5.9897080499
 20
13.234737033
 30
0.0
 10
6.0563835176
 20
13.2809357124
 30
0.0
 10
6.1580314811
 20
13.3477883875
 30
0.0
 10
6.2608672632
 20
13.4127956275
 30
0.0
 10
6.3300185267
 20
13.4551770747
 30
0.0
 10
6.3647080545
 20
13.4761788541
 30
0.0
  0
SPLINE
  5
376
100
AcDbEntity
  8
0
100
AcDbSpline
 62
7
  6
BYLAYER
 70
0
 71
3
 72
68
 73
64
 74
0
 42
0.0000001
 43
0.0000001
 44
0.0000000001
 40
0.0
 40
0.0
 40
0.0
 40
0.0
 40
0.0319523688
 40
0.0479264617
 40
0.0638900899
 40
0.0798330712
 40
0.0957400509
 40
0.1036728224
 40
0.1115859911
 40
0.1194731883
 40
0.1273253283
 40
0.1351288742
 40
0.1428625471
 40
0.1466928938
 40
0.1504905733
 40
0.1542462205
 40
0.1579468574
 40
0.1615727135
 40
0.1650936293
 40
0.1684613059
 40
0.1715941337
 40
0.1743504992
 40
0.1755194101
 40
0.1765017103
 40
0.1772675236
 40
0.1775703099
 40
0.1778274094
 40
0.1780551721
 40
0.1782787026
 40
0.1787978798
 40
0.1794927736
 40
0.1803696879
 40
0.1814041737
 40
0.182570478
 40
0.1838421705
 40
0.1852008606
 40
0.1881182066
 40
0.1912342768
 40
0.1944937464
 40
0.1978607155
 40
0.2013115216
 40
0.2084010378
 40
0.2156745647
 40
0.2230814915
 40
0.2305900882
 40
0.2458337792
 40
0.2612991173
 40
0.2769263242
 40
0.2926781127
 40
0.3244615737
 40
0.3565183965
 40
0.3887697359
 40
0.4211615479
 40
0.4536534915
 40
0.4862133364
 40
0.5514318302
 40
0.6166359318
 40
0.6816743247
 40
0.7464126932
 40
0.810727711
 40
0.87450292
 40
0.9376298765
 40
1.0
 40
1.0
 40
1.0
 40
1.0
 10
6.9705675801
 20
12.6309910364
 30
0.0
 10
6.9704532432
 20
12.6364812114
 30
0.0
 10
6.9702658651
 20
12.6447158063
 30
0.0
 10
6.9699732964
 20
12.6556921334
 30
0.0
 10
6.9697285452
 20
12.6639173339
 30
0.0
 10
6.9694533224
 20
12.6721300354
 30
0.0
 10
6.9691924097
 20
12.6789621916
 30
0.0
 10
6.9689593061
 20
12.6844143076
 30
0.0
 10
6.9687706264
 20
12.6884887517
 30
0.0
 10
6.9685656269
 20
12.6925485358
 30
0.0
 10
6.9683412703
 20
12.6965884352
 30
0.0
 10
6.968093478
 20
12.7006005377
 30
0.0
 10
6.9678620998
 20
12.7039210681
 30
0.0
 10
6.9676576322
 20
12.7065532287
 30
0.0
 10
6.9674938444
 20
12.7085027854
 30
0.0
 10
6.9673172951
 20
12.7104288507
 30
0.0
 10
6.9671257776
 20
12.7123238174
 30
0.0
 10
6.9669162914
 20
12.7141763189
 30
0.0
 10
6.9666850266
 20
12.7159685605
 30
0.0
 10
6.966427743
 20
12.7176717862
 30
0.0
 10
6.9661386722
 20
12.7192364065
 30
0.0
 10
6.9658574393
 20
12.7204177788
 30
0.0
 10
6.9655936387
 20
12.7212198359
 30
0.0
 10
6.9653964608
 20
12.721681094
 30
0.0
 10
6.9652106568
 20
12.7219847635
 30
0.0
 10
6.9650490868
 20
12.7221470586
 30
0.0
 10
6.9649334086
 20
12.722220535
 30
0.0
 10
6.9648127612
 20
12.7222504842
 30
0.0
 10
6.9646436829
 20
12.7222284819
 30
0.0
 10
6.9644350803
 20
12.7220759936
 30
0.0
 10
6.9642257847
 20
12.7217827726
 30
0.0
 10
6.9640209939
 20
12.7213828625
 30
0.0
 10
6.9638249366
 20
12.7208912472
 30
0.0
 10
6.9636367367
 20
12.7203246411
 30
0.0
 10
6.9634562381
 20
12.7196974782
 30
0.0
 10
6.9632203934
 20
12.7187735589
 30
0.0
 10
6.9629482184
 20
12.7175323162
 30
0.0
 10
6.9626500752
 20
12.7159631918
 30
0.0
 10
6.9623701956
 20
12.7143123049
 30
0.0
 10
6.9621057064
 20
12.7126006895
 30
0.0
 10
6.961767753
 20
12.7102345421
 30
0.0
 10
6.9613761272
 20
12.7071980545
 30
0.0
 10
6.9609433186
 20
12.7034817052
 30
0.0
 10
6.9605369493
 20
12.6996899434
 30
0.0
 10
6.9600213661
 20
12.6945324261
 30
0.0
 10
6.9594238057
 20
12.6879914325
 30
0.0
 10
6.9587613878
 20
12.6800555892
 30
0.0
 10
6.9581388418
 20
12.6720289444
 30
0.0
 10
6.9573492493
 20
12.6612025099
 30
0.0
 10
6.9564299454
 20
12.6475545634
 30
0.0
 10
6.9554051654
 20
12.631071942
 30
0.0
 10
6.9544388635
 20
12.6144810715
 30
0.0
 10
6.9535194445
 20
12.5978126565
 30
0.0
 10
6.9526389192
 20
12.5810890535
 30
0.0
 10
6.9515084532
 20
12.5587292212
 30
0.0
 10
6.95016821
 20
12.5307509313
 30
0.0
 10
6.9486502828
 20
12.4971930987
 30
0.0
 10
6.9472069516
 20
12.4637145736
 30
0.0
 10
6.9458278725
 20
12.4303862765
 30
0.0
 10
6.9445057619
 20
12.3972729385
 30
0.0
 10
6.9432352743
 20
12.3644347265
 30
0.0
 10
6.9420124546
 20
12.3319291924
 30
0.0
 10
6.9412218166
 20
12.3103756344
 30
0.0
 10
6.9408333333
 20
12.2996636859
 30
0.0
  0
SPLINE
  5
377
100
AcDbEntity
  8
0
100
AcDbSpline
 62
7
  6
BYLAYER
 70
0
 71
3
 72
36
 73
32
 74
0
 42
0.0000001
 43
0.0000001
 44
0.0000000001
 40
0.0
 40
0.0
 40
0.0
 40
0.0
 40
0.116730681
 40
0.2375278376
 40
0.3615401244
 40
0.4244805427
 40
0.4878972256
 40
0.5516800316
 40
0.6157190051
 40
0.6478007965
 40
0.679905973
 40
0.7120212225
 40
0.7441334784
 40
0.7762300727
 40
0.8082989048
 40
0.8403287637
 40
0.8563267005
 40
0.8723117525
 40
0.8882833448
 40
0.9042413709
 40
0.9201864657
 40
0.9361206191
 40
0.9440863583
 40
0.9520521027
 40
0.9600195848
 40
0.9679913324
 40
0.9759706869
 40
0.9839623663
 40
0.991967152
 40
0.9959835278
 40
1.0
 40
1.0
 40
1.0
 40
1.0
 10
6.9408333333
 20
12.2996636859
 30
0.0
 10
6.9385417779
 20
12.3229000923
 30
0.0
 10
6.9336844771
 20
12.370163573
 30
0.0
 10
6.9255650218
 20
12.4420249723
 30
0.0
 10
6.9178774029
 20
12.503103432
 30
0.0
 10
6.9110039121
 20
12.552710419
 30
0.0
 10
6.9054132427
 20
12.5903308889
 30
0.0
 10
6.8993463757
 20
12.6281003117
 30
0.0
 10
6.8938190864
 20
12.6596055336
 30
0.0
 10
6.889042539
 20
12.6848056869
 30
0.0
 10
6.8852585314
 20
12.7036936882
 30
0.0
 10
6.8812470467
 20
12.7225410548
 30
0.0
 10
6.8769712911
 20
12.7413286772
 30
0.0
 10
6.872382211
 20
12.7600330828
 30
0.0
 10
6.8674117241
 20
12.7786231254
 30
0.0
 10
6.8628687138
 20
12.7939898306
 30
0.0
 10
6.858916808
 20
12.8061696743
 30
0.0
 10
6.8557663225
 20
12.8152305756
 30
0.0
 10
6.8523914586
 20
12.8242021604
 30
0.0
 10
6.8487425284
 20
12.8330580501
 30
0.0
 10
6.8447494389
 20
12.8417568236
 30
0.0
 10
6.841048312
 20
12.8488220693
 30
0.0
 10
6.8377807421
 20
12.8542966932
 30
0.0
 10
6.8351449152
 20
12.8582872174
 30
0.0
 10
6.8322838502
 20
12.8621225272
 30
0.0
 10
6.8291440785
 20
12.8657398223
 30
0.0
 10
6.8256547233
 20
12.8690359102
 30
0.0
 10
6.821736206
 20
12.8718338019
 30
0.0
 10
6.8180500922
 20
12.8734974155
 30
0.0
 10
6.8149127659
 20
12.8742110764
 30
0.0
 10
6.8133033974
 20
12.8743348673
 30
0.0
 10
6.8125
 20
12.8743348673
 30
0.0
  0
SPLINE
  5
378
100
AcDbEntity
  8
0
100
AcDbSpline
 62
7
  6
BYLAYER
 70
0
 71
3
 72
19
 73
15
 74
0
 42
0.0000001
 43
0.0000001
 44
0.0000000001
 40
0.0
 40
0.0
 40
0.0
 40
0.0
 40
0.0241610582
 40
0.0514344679
 40
0.0835665035
 40
0.121529418
 40
0.1657534615
 40
0.2163844491
 40
0.2733438186
 40
0.3363942808
 40
0.4793346021
 40
0.6413047633
 40
0.8171113157
 40
1.0
 40
1.0
 40
1.0
 40
1.0
 10
4.75
 20
11.933029799
 30
0.0
 10
4.75
 20
11.93339497
 30
0.0
 10
4.7501533573
 20
11.934176232
 30
0.0
 10
4.7507797918
 20
11.9352894909
 30
0.0
 10
4.7517780286
 20
11.9363829852
 30
0.0
 10
4.753138901
 20
11.9374562492
 30
0.0
 10
4.7548539747
 20
11.9385061409
 30
0.0
 10
4.7569138533
 20
11.9395225212
 30
0.0
 10
4.7593046421
 20
11.9404947446
 30
0.0
 10
4.7630710105
 20
11.9417691736
 30
0.0
 10
4.7684716951
 20
11.9431324169
 30
0.0
 10
4.775641475
 20
11.9443454787
 30
0.0
 10
4.7834795132
 20
11.9451101456
 30
0.0
 10
4.7889024808
 20
11.9452840285
 30
0.0
 10
4.7916666667
 20
11.9452840285
 30
0.0
  0
SPLINE
  5
379
100
AcDbEntity
  8
0
100
AcDbSpline
 62
7
  6
BYLAYER
 70
0
 71
3
 72
19
 73
15
 74
0
 42
0.0000001
 43
0.0000001
 44
0.0000000001
 40
0.0
 40
0.0
 40
0.0
 40
0.0
 40
0.1828886843
 40
0.3586952367
 40
0.5206653979
 40
0.6636057192
 40
0.7266561814
 40
0.7836155509
 40
0.8342465385
 40
0.878470582
 40
0.9164334965
 40
0.9485655321
 40
0.9758389418
 40
1.0
 40
1.0
 40
1.0
 40
1.0
 10
5.125
 20
11.9452840285
 30
0.0
 10
5.1277641859
 20
11.9452840285
 30
0.0
 10
5.1331871534
 20
11.9451101456
 30
0.0
 10
5.1410251917
 20
11.9443454787
 30
0.0
 10
5.1481949715
 20
11.9431324169
 30
0.0
 10
5.1535956562
 20
11.9417691736
 30
0.0
 10
5.1573620246
 20
11.9404947446
 30
0.0
 10
5.1597528134
 20
11.9395225212
 30
0.0
 10
5.161812692
 20
11.9385061409
 30
0.0
 10
5.1635277657
 20
11.9374562492
 30
0.0
 10
5.1648886381
 20
11.9363829852
 30
0.0
 10
5.1658868748
 20
11.9352894909
 30
0.0
 10
5.1665133094
 20
11.934176232
 30
0.0
 10
5.1666666667
 20
11.93339497
 30
0.0
 10
5.1666666667
 20
11.933029799
 30
0.0
  0
SPLINE
  5
37A
100
AcDbEntity
  8
0
100
AcDbSpline
 62
7
  6
BYLAYER
 70
0
 71
3
 72
82
 73
78
 74
0
 42
0.0000001
 43
0.0000001
 44
0.0000000001
 40
0.0
 40
0.0
 40
0.0
 40
0.0
 40
0.03127265
 40
0.0625464029
 40
0.0938196786
 40
0.1250935158
 40
0.1876054826
 40
0.2501188633
 40
0.2813931361
 40
0.3126674132
 40
0.3439418612
 40
0.3752164285
 40
0.4064909205
 40
0.4377651795
 40
0.4690388269
 40
0.5003110574
 40
0.5315820942
 40
0.5628523861
 40
0.5941222761
 40
0.6097585206
 40
0.6253945998
 40
0.6410305088
 40
0.6566662204
 40
0.6723016814
 40
0.687936801
 40
0.7035713953
 40
0.7113884348
 40
0.7192051673
 40
0.7270214835
 40
0.7348372143
 40
0.7426520809
 40
0.7504655842
 40
0.7543716013
 40
0.7582768777
 40
0.7621811078
 40
0.7660837664
 40
0.7699838762
 40
0.7719326599
 40
0.7738799959
 40
0.77582519
 40
0.7777669853
 40
0.7797028549
 40
0.7806686345
 40
0.7816315375
 40
0.7825912201
 40
0.783548067
 40
0.7845028931
 40
0.7854586601
 40
0.7864166229
 40
0.787376675
 40
0.7893014432
 40
0.7912333097
 40
0.7931696381
 40
0.7951089505
 40
0.7970503678
 40
0.8009370009
 40
0.804827757
 40
0.8087212134
 40
0.8126165786
 40
0.8165133778
 40
0.8204112986
 40
0.8243101222
 40
0.8282096887
 40
0.836010337
 40
0.8438129012
 40
0.8516169342
 40
0.8594221329
 40
0.867228283
 40
0.8750352278
 40
0.8906502502
 40
0.9062674555
 40
0.921886417
 40
0.9375068471
 40
0.9531285485
 40
0.9687513735
 40
0.9843752027
 40
1.0
 40
1.0
 40
1.0
 40
1.0
 10
15.6961328014
 20
4.2419693333
 30
0.0
 10
15.6955139828
 20
4.2583440223
 30
0.0
 10
15.6954133214
 20
4.2911483309
 30
0.0
 10
15.6986616341
 20
4.3402376847
 30
0.0
 10
15.7052808137
 20
4.3889918939
 30
0.0
 10
15.7185292502
 20
4.4532112244
 30
0.0
 10
15.7432595319
 20
4.5315687214
 30
0.0
 10
15.77830896
 20
4.605876724
 30
0.0
 10
15.8120508367
 20
4.6620990336
 30
0.0
 10
15.8400962937
 20
4.702521597
 30
0.0
 10
15.8707268937
 20
4.7410189987
 30
0.0
 10
15.9037905059
 20
4.7774481171
 30
0.0
 10
15.9391249982
 20
4.8116776649
 30
0.0
 10
15.9765609049
 20
4.8435934611
 30
0.0
 10
16.0159220735
 20
4.8730986801
 30
0.0
 10
16.0570272116
 20
4.900116334
 30
0.0
 10
16.0996918373
 20
4.9245916331
 30
0.0
 10
16.1437282466
 20
4.9464952514
 30
0.0
 10
16.1814149805
 20
4.9626081278
 30
0.0
 10
16.2120576554
 20
4.9742350001
 30
0.0
 10
16.2352663709
 20
4.9823368292
 30
0.0
 10
16.2586761177
 20
4.9898356826
 30
0.0
 10
16.2822633082
 20
4.9967543073
 30
0.0
 10
16.3060039639
 20
5.0031235539
 30
0.0
 10
16.3298733885
 20
5.0089876555
 30
0.0
 10
16.349850517
 20
5.0135063846
 30
0.0
 10
16.3658685927
 20
5.0169506858
 30
0.0
 10
16.3778956957
 20
5.0194670744
 30
0.0
 10
16.3899310534
 20
5.0219400365
 30
0.0
 10
16.4019677553
 20
5.0244015835
 30
0.0
 10
16.4139958642
 20
5.0268975555
 30
0.0
 10
16.424000343
 20
5.0290625737
 30
0.0
 10
16.4319782014
 20
5.0309026293
 30
0.0
 10
16.4379418791
 20
5.0323591504
 30
0.0
 10
16.4438769872
 20
5.0339222611
 30
0.0
 10
16.4497675348
 20
5.0356369983
 30
0.0
 10
16.4546183254
 20
5.0372500417
 30
0.0
 10
16.4584333386
 20
5.038712979
 30
0.0
 10
16.4612463314
 20
5.0399218458
 30
0.0
 10
16.4639885231
 20
5.0412781631
 30
0.0
 10
16.466616149
 20
5.0428352484
 30
0.0
 10
16.4686479004
 20
5.0443737712
 30
0.0
 10
16.4700793099
 20
5.0458113922
 30
0.0
 10
16.4710093283
 20
5.0470117131
 30
0.0
 10
16.4717337978
 20
5.0483447822
 30
0.0
 10
16.4721706031
 20
5.049797862
 30
0.0
 10
16.472256857
 20
5.0513119783
 30
0.0
 10
16.4720005134
 20
5.052804592
 30
0.0
 10
16.4714621781
 20
5.0542187729
 30
0.0
 10
16.4704708372
 20
5.055977675
 30
0.0
 10
16.4688660374
 20
5.0579461028
 30
0.0
 10
16.4666406296
 20
5.0600173032
 30
0.0
 10
16.4642291187
 20
5.0618787017
 30
0.0
 10
16.4616968439
 20
5.0635780343
 30
0.0
 10
16.4582058288
 20
5.0656728147
 30
0.0
 10
16.4536867875
 20
5.0680298176
 30
0.0
 10
16.4481159139
 20
5.0705570385
 30
0.0
 10
16.4424402869
 20
5.0728502212
 30
0.0
 10
16.4366882864
 20
5.0749521215
 30
0.0
 10
16.4308772816
 20
5.0768915992
 30
0.0
 10
16.4250191483
 20
5.0786892976
 30
0.0
 10
16.419122281
 20
5.0803605467
 30
0.0
 10
16.4112160591
 20
5.0824358773
 30
0.0
 10
16.4012641367
 20
5.0847666726
 30
0.0
 10
16.3892403449
 20
5.0871955368
 30
0.0
 10
16.3771519971
 20
5.0892923362
 30
0.0
 10
16.3650129099
 20
5.0910832518
 30
0.0
 10
16.3528336016
 20
5.0925880906
 30
0.0
 10
16.3365523702
 20
5.0942332212
 30
0.0
 10
16.3161388442
 20
5.0956431629
 30
0.0
 10
16.2915946169
 20
5.0963716439
 30
0.0
 10
16.2670377187
 20
5.096185721
 30
0.0
 10
16.242501238
 20
5.0951222519
 30
0.0
 10
16.2180145239
 20
5.0932100739
 30
0.0
 10
16.1936046256
 20
5.090472827
 30
0.0
 10
16.1692972687
 20
5.0869306997
 30
0.0
 10
16.1531764907
 20
5.0840443537
 30
0.0
 10
16.1451416008
 20
5.0824727476
 30
0.0
  0
SPLINE
  5
37B
100
AcDbEntity
  8
0
100
AcDbSpline
 62
7
  6
BYLAYER
 70
0
 71
3
 72
43
 73
39
 74
0
 42
0.0000001
 43
0.0000001
 44
0.0000000001
 40
0.0
 40
0.0
 40
0.0
 40
0.0
 40
0.0312445523
 40
0.0468726484
 40
0.0625012667
 40
0.0937478088
 40
0.1249950739
 40
0.1406244215
 40
0.1562538489
 40
0.1875020466
 40
0.2187504512
 40
0.2499990003
 40
0.2812475345
 40
0.3124960039
 40
0.3437444237
 40
0.3749927445
 40
0.406240978
 40
0.437489193
 40
0.4687374146
 40
0.4999856817
 40
0.5312340728
 40
0.5624826286
 40
0.5937314028
 40
0.624980445
 40
0.6562297898
 40
0.6874794025
 40
0.7187292908
 40
0.7499794651
 40
0.7812298425
 40
0.8124803511
 40
0.8437309881
 40
0.8593606428
 40
0.8749902807
 40
0.9062408303
 40
0.9374913481
 40
0.9531206545
 40
0.9687498314
 40
1.0
 40
1.0
 40
1.0
 40
1.0
 10
17.2618696083
 20
4.2419693333
 30
0.0
 10
17.2636257241
 20
4.2162999228
 30
0.0
 10
17.2641542542
 20
4.1776041615
 30
0.0
 10
17.260670361
 20
4.126235654
 30
0.0
 10
17.2544189292
 20
4.0751230966
 30
0.0
 10
17.241458108
 20
4.0119758938
 30
0.0
 10
17.2218335009
 20
3.9505734185
 30
0.0
 10
17.2023095883
 20
3.9029244428
 30
0.0
 10
17.1802977603
 20
3.8563720167
 30
0.0
 10
17.1482304483
 20
3.8004496738
 30
0.0
 10
17.1029703258
 20
3.7377433885
 30
0.0
 10
17.0514576627
 20
3.6800599315
 30
0.0
 10
16.9942873335
 20
3.6279827698
 30
0.0
 10
16.9320987706
 20
3.5820176194
 30
0.0
 10
16.8655702691
 20
3.5425986558
 30
0.0
 10
16.7954102459
 20
3.510084503
 30
0.0
 10
16.7223496479
 20
3.4847574015
 30
0.0
 10
16.6471336607
 20
3.4668238747
 30
0.0
 10
16.5705145531
 20
3.4564152834
 30
0.0
 10
16.4932446578
 20
3.453588476
 30
0.0
 10
16.4160695534
 20
3.4583286422
 30
0.0
 10
16.3397220582
 20
3.4705515549
 30
0.0
 10
16.2649163879
 20
3.4901054829
 30
0.0
 10
16.1923427411
 20
3.5167747174
 30
0.0
 10
16.1226624988
 20
3.5502830089
 30
0.0
 10
16.0565034839
 20
3.5902967107
 30
0.0
 10
15.9944554372
 20
3.6364285113
 30
0.0
 10
15.9370664947
 20
3.6882413067
 30
0.0
 10
15.8848387148
 20
3.7452538394
 30
0.0
 10
15.8382273466
 20
3.8069385796
 30
0.0
 10
15.8043912891
 20
3.8617839896
 30
0.0
 10
15.7805124251
 20
3.9074047222
 30
0.0
 10
15.7588018082
 20
3.954096595
 30
0.0
 10
15.735810539
 20
4.0142954297
 30
0.0
 10
15.7185549064
 20
4.0763807003
 30
0.0
 10
15.7082754604
 20
4.1268365415
 30
0.0
 10
15.7003620421
 20
4.1777130188
 30
0.0
 10
15.6971046269
 20
4.2162536543
 30
0.0
 10
15.6961328014
 20
4.2419693333
 30
0.0
  0
SPLINE
  5
37C
100
AcDbEntity
  8
0
100
AcDbSpline
 62
7
  6
BYLAYER
 70
0
 71
3
 72
13
 73
9
 74
0
 42
0.0000001
 43
0.0000001
 44
0.0000000001
 40
0.0
 40
0.0
 40
0.0
 40
0.0
 40
0.1252446773
 40
0.2504660321
 40
0.3756377946
 40
0.5007355698
 40
0.7506234236
 40
1.0
 40
1.0
 40
1.0
 40
1.0
 10
17.2632689095
 20
4.2419693333
 30
0.0
 10
17.2630879656
 20
4.2627231897
 30
0.0
 10
17.2624695306
 20
4.3042252429
 30
0.0
 10
17.260790243
 20
4.3664519389
 30
0.0
 10
17.2584059322
 20
4.4286311268
 30
0.0
 10
17.2543845319
 20
4.5114172109
 30
0.0
 10
17.2480000044
 20
4.6146889449
 30
0.0
 10
17.2420027543
 20
4.6972063033
 30
0.0
 10
17.2389290547
 20
4.7384167243
 30
0.0
  0
SPLINE
  5
37D
100
AcDbEntity
  8
0
100
AcDbSpline
 62
7
  6
BYLAYER
 70
0
 71
3
 72
15
 73
11
 74
0
 42
0.0000001
 43
0.0000001
 44
0.0000000001
 40
0.0
 40
0.0
 40
0.0
 40
0.0
 40
0.1595802234
 40
0.3098575075
 40
0.450198485
 40
0.5802572267
 40
0.699888118
 40
0.8092600338
 40
0.9089402991
 40
1.0
 40
1.0
 40
1.0
 40
1.0
 10
16.6650373416
 20
12.8397996432
 30
0.0
 10
16.6694405982
 20
12.8540485869
 30
0.0
 10
16.6786564505
 20
12.8815172229
 30
0.0
 10
16.694222485
 20
12.9206306819
 30
0.0
 10
16.7110295078
 20
12.9562047166
 30
0.0
 10
16.7289565725
 20
12.9879848716
 30
0.0
 10
16.7478833666
 20
13.0157509731
 30
0.0
 10
16.7676924502
 20
13.0393114737
 30
0.0
 10
16.7882575089
 20
13.0584938212
 30
0.0
 10
16.8030049805
 20
13.0686709405
 30
0.0
 10
16.8104179682
 20
13.0728506011
 30
0.0
  0
SPLINE
  5
37E
100
AcDbEntity
  8
0
100
AcDbSpline
 62
7
  6
BYLAYER
 70
0
 71
3
 72
27
 73
23
 74
0
 42
0.0000001
 43
0.0000001
 44
0.0000000001
 40
0.0
 40
0.0
 40
0.0
 40
0.0
 40
0.0638224238
 40
0.1316995495
 40
0.2027943993
 40
0.2761829516
 40
0.3508865452
 40
0.4258945876
 40
0.5001895706
 40
0.5727706938
 40
0.6426783762
 40
0.6763514692
 40
0.7090283652
 40
0.7710075811
 40
0.8279581621
 40
0.8543942716
 40
0.8794073299
 40
0.9029750074
 40
0.9250948682
 40
0.9457905071
 40
0.9651152826
 40
1.0
 40
1.0
 40
1.0
 40
1.0
 10
16.6650373416
 20
12.8397996432
 30
0.0
 10
16.6580871989
 20
12.8173089733
 30
0.0
 10
16.6454920105
 20
12.7703480084
 30
0.0
 10
16.6307081924
 20
12.6969838949
 30
0.0
 10
16.6196162449
 20
12.6194066397
 30
0.0
 10
16.6123976433
 20
12.5388501087
 30
0.0
 10
16.6091689816
 20
12.4565921926
 30
0.0
 10
16.609982988
 20
12.3739412476
 30
0.0
 10
16.6148262871
 20
12.2922110681
 30
0.0
 10
16.6236203909
 20
12.2127029339
 30
0.0
 10
16.6342506121
 20
12.148564494
 30
0.0
 10
16.6446913035
 20
12.099396544
 30
0.0
 10
16.6559789295
 20
12.0534228732
 30
0.0
 10
16.6719773119
 20
11.9997930786
 30
0.0
 10
16.6912458166
 20
11.949680725
 30
0.0
 10
16.708238948
 20
11.9134730487
 30
0.0
 10
16.7212949375
 20
11.8890621071
 30
0.0
 10
16.7349264857
 20
11.8668114715
 30
0.0
 10
16.7490814944
 20
11.8468107271
 30
0.0
 10
16.7637148966
 20
11.8291299281
 30
0.0
 10
16.7831057448
 20
11.8094357938
 30
0.0
 10
16.7992083899
 20
11.7972061073
 30
0.0
 10
16.8104162455
 20
11.7908864723
 30
0.0
  0
SPLINE
  5
37F
100
AcDbEntity
  8
0
100
AcDbSpline
 62
7
  6
BYLAYER
 70
0
 71
3
 72
9
 73
5
 74
0
 42
0.0000001
 43
0.0000001
 44
0.0000000001
 40
0.0
 40
0.0
 40
0.0
 40
0.0
 40
0.4979215235
 40
1.0
 40
1.0
 40
1.0
 40
1.0
 10
16.9719609637
 20
11.7388288074
 30
0.0
 10
17.0037246309
 20
11.7149141226
 30
0.0
 10
17.0688137251
 20
11.6686034481
 30
0.0
 10
17.1354445049
 20
11.6245802418
 30
0.0
 10
17.1691542537
 20
11.6028776749
 30
0.0
  0
SPLINE
  5
380
100
AcDbEntity
  8
0
100
AcDbSpline
 62
7
  6
BYLAYER
 70
0
 71
3
 72
11
 73
7
 74
0
 42
0.0000001
 43
0.0000001
 44
0.0000000001
 40
0.0
 40
0.0
 40
0.0
 40
0.0
 40
0.2475232272
 40
0.4970157331
 40
0.7479593958
 40
1.0
 40
1.0
 40
1.0
 40
1.0
 10
16.6705732444
 20
12.3529924063
 30
0.0
 10
16.7002050336
 20
12.3306828003
 30
0.0
 10
16.7608364999
 20
12.287385466
 30
0.0
 10
16.8541679064
 20
12.2253051897
 30
0.0
 10
16.9494957536
 20
12.1650654243
 30
0.0
 10
17.0138961597
 20
12.1258994611
 30
0.0
 10
17.0462920979
 20
12.1064845434
 30
0.0
  0
SPLINE
  5
381
100
AcDbEntity
  8
0
100
AcDbSpline
 62
7
  6
BYLAYER
 70
0
 71
3
 72
11
 73
7
 74
0
 42
0.0000001
 43
0.0000001
 44
0.0000000001
 40
0.0
 40
0.0
 40
0.0
 40
0.0
 40
0.2624167419
 40
0.5107621073
 40
0.7536006777
 40
1.0
 40
1.0
 40
1.0
 40
1.0
 10
16.8822662192
 20
11.7503821814
 30
0.0
 10
16.8893443715
 20
11.7463907569
 30
0.0
 10
16.9038015284
 20
11.7397285435
 30
0.0
 10
16.9266483238
 20
11.7342353785
 30
0.0
 10
16.9496553429
 20
11.7337191894
 30
0.0
 10
16.9646507441
 20
11.7366430556
 30
0.0
 10
16.9719609637
 20
11.7388288074
 30
0.0
  0
SPLINE
  5
382
100
AcDbEntity
  8
0
100
AcDbSpline
 62
7
  6
BYLAYER
 70
0
 71
3
 72
19
 73
15
 74
0
 42
0.0000001
 43
0.0000001
 44
0.0000000001
 40
0.0
 40
0.0
 40
0.0
 40
0.0
 40
0.1617802033
 40
0.3178587852
 40
0.4651995075
 40
0.5347438767
 40
0.601126199
 40
0.6640917508
 40
0.7234271518
 40
0.7789781265
 40
0.8306523589
 40
0.8784454761
 40
0.9224514419
 40
1.0
 40
1.0
 40
1.0
 40
1.0
 10
16.6705732444
 20
12.3529924063
 30
0.0
 10
16.6721445129
 20
12.3175290484
 30
0.0
 10
16.677326768
 20
12.2479228621
 30
0.0
 10
16.6913756124
 20
12.1467511563
 30
0.0
 10
16.708260353
 20
12.0665869517
 30
0.0
 10
16.7247771524
 20
12.0066494864
 30
0.0
 10
16.7382170279
 20
11.9651125935
 30
0.0
 10
16.7528633225
 20
11.9263692063
 30
0.0
 10
16.7686323869
 20
11.8906492613
 30
0.0
 10
16.7854293525
 20
11.8581599316
 30
0.0
 10
16.8031569718
 20
11.8290971424
 30
0.0
 10
16.8217296773
 20
11.8036101294
 30
0.0
 10
16.8464007288
 20
11.7758129746
 30
0.0
 10
16.8674445301
 20
11.758740246
 30
0.0
 10
16.8822662192
 20
11.7503821814
 30
0.0
  0
SPLINE
  5
383
100
AcDbEntity
  8
0
100
AcDbSpline
 62
7
  6
BYLAYER
 70
0
 71
3
 72
15
 73
11
 74
0
 42
0.0000001
 43
0.0000001
 44
0.0000000001
 40
0.0
 40
0.0
 40
0.0
 40
0.0
 40
0.1530508115
 40
0.2986150253
 40
0.436273129
 40
0.5657093274
 40
0.686734876
 40
0.7993151286
 40
0.9036060422
 40
1.0
 40
1.0
 40
1.0
 40
1.0
 10
17.1233053591
 20
13.1337693573
 30
0.0
 10
17.1297631395
 20
13.1546667424
 30
0.0
 10
17.1431992611
 20
13.195188211
 30
0.0
 10
17.1655307788
 20
13.2534243844
 30
0.0
 10
17.1894425422
 20
13.3073635632
 30
0.0
 10
17.2148114734
 20
13.3567268666
 30
0.0
 10
17.2415087189
 20
13.4012616072
 30
0.0
 10
17.2694050988
 20
13.4407432342
 30
0.0
 10
17.2983614857
 20
13.4749654425
 30
0.0
 10
17.3190702661
 20
13.4949088793
 30
0.0
 10
17.329566287
 20
13.5038308451
 30
0.0
  0
SPLINE
  5
384
100
AcDbEntity
  8
0
100
AcDbSpline
 62
7
  6
BYLAYER
 70
0
 71
3
 72
18
 73
14
 74
0
 42
0.0000001
 43
0.0000001
 44
0.0000000001
 40
0.0
 40
0.0
 40
0.0
 40
0.0
 40
0.0547124141
 40
0.1112774723
 40
0.1695430182
 40
0.2293516612
 40
0.2905332491
 40
0.3529108113
 40
0.4805017618
 40
0.6106009198
 40
0.7416198771
 40
0.8719506948
 40
1.0
 40
1.0
 40
1.0
 40
1.0
 10
17.1233053591
 20
13.1337693573
 30
0.0
 10
17.1177223861
 20
13.1157028501
 30
0.0
 10
17.1070175793
 20
13.0787544194
 30
0.0
 10
17.0925421699
 20
13.0219644683
 30
0.0
 10
17.0794201454
 20
12.9630408159
 30
0.0
 10
17.0676991919
 20
12.9021978508
 30
0.0
 10
17.0574216452
 20
12.8396539401
 30
0.0
 10
17.0456053124
 20
12.7536522234
 30
0.0
 10
17.0347503882
 20
12.643515801
 30
0.0
 10
17.0280079681
 20
12.5092927718
 30
0.0
 10
17.02755301
 20
12.3739522446
 30
0.0
 10
17.0333915507
 20
12.2394495561
 30
0.0
 10
17.041527686
 20
12.1504779629
 30
0.0
 10
17.0466779878
 20
12.106522804
 30
0.0
  0
SPLINE
  5
385
100
AcDbEntity
  8
0
100
AcDbSpline
 62
7
  6
BYLAYER
 70
0
 71
3
 72
26
 73
22
 74
0
 42
0.0000001
 43
0.0000001
 44
0.0000000001
 40
0.0
 40
0.0
 40
0.0
 40
0.0
 40
0.088213501
 40
0.1742329281
 40
0.2576411637
 40
0.3380473074
 40
0.4150923248
 40
0.4884554899
 40
0.5578620016
 40
0.6230923022
 40
0.6839938799
 40
0.7404966376
 40
0.7926331895
 40
0.8405654745
 40
0.8630606886
 40
0.8846428312
 40
0.9253403814
 40
0.9446756934
 40
0.9634754601
 40
0.9818697497
 40
1.0
 40
1.0
 40
1.0
 40
1.0
 10
17.0467832055
 20
12.1056261726
 30
0.0
 10
17.050051868
 20
12.0778134345
 30
0.0
 10
17.0573955158
 20
12.0229791629
 30
0.0
 10
17.0710128251
 20
11.9423140283
 30
0.0
 10
17.0870289462
 20
11.8646171729
 30
0.0
 10
17.105345988
 20
11.790359639
 30
0.0
 10
17.1258523738
 20
11.7199894047
 30
0.0
 10
17.1484235798
 20
11.6539301635
 30
0.0
 10
17.1729232645
 20
11.5925780528
 30
0.0
 10
17.1992049556
 20
11.5362988167
 30
0.0
 10
17.2271134547
 20
11.4854260417
 30
0.0
 10
17.2564898341
 20
11.440256833
 30
0.0
 10
17.2871680226
 20
11.4010594399
 30
0.0
 10
17.3142415446
 20
11.3729861686
 30
0.0
 10
17.3364161869
 20
11.3539417722
 30
0.0
 10
17.3579687491
 20
11.337803217
 30
0.0
 10
17.3803557416
 20
11.324508146
 30
0.0
 10
17.4033592276
 20
11.3145827549
 30
0.0
 10
17.4204320505
 20
11.3089683774
 30
0.0
 10
17.4375839839
 20
11.3050728632
 30
0.0
 10
17.4491103044
 20
11.303619893
 30
0.0
 10
17.4548496369
 20
11.3031873646
 30
0.0
  0
SPLINE
  5
386
100
AcDbEntity
  8
02___PRT_ALL_AXES
100
AcDbSpline
 62
7
  6
BYLAYER
 70
0
 71
3
 72
15
 73
11
 74
0
 42
0.0000001
 43
0.0000001
 44
0.0000000001
 40
0.0
 40
0.0
 40
0.0
 40
0.0
 40
0.1639528902
 40
0.3154364244
 40
0.454388828
 40
0.5813336036
 40
0.6973084096
 40
0.8039849003
 40
0.9038205145
 40
1.0
 40
1.0
 40
1.0
 40
1.0
 10
18.3072174838
 20
12.8382370167
 30
0.0
 10
18.3077306687
 20
12.8371912558
 30
0.0
 10
18.3087841843
 20
12.8352105134
 30
0.0
 10
18.310521086
 20
12.8324846412
 30
0.0
 10
18.3123428368
 20
12.8301382464
 30
0.0
 10
18.3142382887
 20
12.8281876677
 30
0.0
 10
18.3161972705
 20
12.8266463878
 30
0.0
 10
18.3182107617
 20
12.825528647
 30
0.0
 10
18.3202653047
 20
12.8248484636
 30
0.0
 10
18.3216622846
 20
12.8246951078
 30
0.0
 10
18.3223456441
 20
12.8246949996
 30
0.0
  0
SPLINE
  5
387
100
AcDbEntity
  8
02___PRT_ALL_AXES
100
AcDbSpline
 62
7
  6
BYLAYER
 70
0
 71
3
 72
25
 73
21
 74
0
 42
0.0000001
 43
0.0000001
 44
0.0000000001
 40
0.0
 40
0.0
 40
0.0
 40
0.0
 40
0.0673919447
 40
0.1394069959
 40
0.2149436762
 40
0.2927919593
 40
0.3716716065
 40
0.4502731556
 40
0.5272949181
 40
0.6014813783
 40
0.6716631111
 40
0.7368012817
 40
0.796041299
 40
0.8487849157
 40
0.8947985141
 40
0.915375081
 40
0.9344460043
 40
0.9687234751
 40
0.9845685777
 40
1.0
 40
1.0
 40
1.0
 40
1.0
 10
18.1463786685
 20
12.4183077827
 30
0.0
 10
18.1456435435
 20
12.4159289175
 30
0.0
 10
18.1443281908
 20
12.4109432174
 30
0.0
 10
18.1428347804
 20
12.4031384194
 30
0.0
 10
18.1417758154
 20
12.3948733817
 30
0.0
 10
18.1411725009
 20
12.386308963
 30
0.0
 10
18.1410368584
 20
12.377611261
 30
0.0
 10
18.1413715918
 20
12.3689494738
 30
0.0
 10
18.1421700254
 20
12.3604919509
 30
0.0
 10
18.1434162276
 20
12.3524028238
 30
0.0
 10
18.1450854397
 20
12.3448383567
 30
0.0
 10
18.1471446333
 20
12.3379437933
 30
0.0
 10
18.149554152
 20
12.3318486356
 30
0.0
 10
18.1522686669
 20
12.3266668628
 30
0.0
 10
18.1548370632
 20
12.3230574316
 30
0.0
 10
18.1570243623
 20
12.320761589
 30
0.0
 10
18.1591116435
 20
12.3189965056
 30
0.0
 10
18.1613687791
 20
12.317706715
 30
0.0
 10
18.1637144941
 20
12.3170630113
 30
0.0
 10
18.1648726713
 20
12.3169572976
 30
0.0
 10
18.1654428002
 20
12.3169572085
 30
0.0
  0
SPLINE
  5
388
100
AcDbEntity
  8
02___PRT_ALL_AXES
100
AcDbSpline
 62
7
  6
BYLAYER
 70
0
 71
3
 72
15
 73
11
 74
0
 42
0.0000001
 43
0.0000001
 44
0.0000000001
 40
0.0
 40
0.0
 40
0.0
 40
0.0
 40
0.1639528902
 40
0.3154364244
 40
0.454388828
 40
0.5813336036
 40
0.6973084096
 40
0.8039849003
 40
0.9038205145
 40
1.0
 40
1.0
 40
1.0
 40
1.0
 10
18.348037048
 20
11.9275833226
 30
0.0
 10
18.3485502329
 20
11.9265375617
 30
0.0
 10
18.3496037485
 20
11.9245568194
 30
0.0
 10
18.3513406502
 20
11.9218309471
 30
0.0
 10
18.353162401
 20
11.9194845523
 30
0.0
 10
18.3550578529
 20
11.9175339736
 30
0.0
 10
18.3570168347
 20
11.9159926938
 30
0.0
 10
18.3590303259
 20
11.914874953
 30
0.0
 10
18.3610848688
 20
11.9141947695
 30
0.0
 10
18.3624818488
 20
11.9140414138
 30
0.0
 10
18.3631652083
 20
11.9140413055
 30
0.0
  0
SPLINE
  5
389
100
AcDbEntity
  8
02___PRT_ALL_AXES
100
AcDbSpline
 62
7
  6
BYLAYER
 70
0
 71
3
 72
25
 73
21
 74
0
 42
0.0000001
 43
0.0000001
 44
0.0000000001
 40
0.0
 40
0.0
 40
0.0
 40
0.0
 40
0.0673919447
 40
0.1394069959
 40
0.2149436762
 40
0.2927919593
 40
0.3716716065
 40
0.4502731556
 40
0.5272949181
 40
0.6014813783
 40
0.6716631111
 40
0.7368012817
 40
0.796041299
 40
0.8487849157
 40
0.8947985141
 40
0.915375081
 40
0.9344460043
 40
0.9687234751
 40
0.9845685777
 40
1.0
 40
1.0
 40
1.0
 40
1.0
 10
18.5010039204
 20
12.5231296664
 30
0.0
 10
18.5002687955
 20
12.5207508012
 30
0.0
 10
18.4989534428
 20
12.5157651011
 30
0.0
 10
18.4974600324
 20
12.5079603031
 30
0.0
 10
18.4964010673
 20
12.4996952654
 30
0.0
 10
18.4957977529
 20
12.4911308468
 30
0.0
 10
18.4956621104
 20
12.4824331447
 30
0.0
 10
18.4959968438
 20
12.4737713575
 30
0.0
 10
18.4967952774
 20
12.4653138346
 30
0.0
 10
18.4980414795
 20
12.4572247075
 30
0.0
 10
18.4997106916
 20
12.4496602405
 30
0.0
 10
18.5017698853
 20
12.442765677
 30
0.0
 10
18.504179404
 20
12.4366705193
 30
0.0
 10
18.5068939189
 20
12.4314887465
 30
0.0
 10
18.5094623151
 20
12.4278793153
 30
0.0
 10
18.5116496142
 20
12.4255834727
 30
0.0
 10
18.5137368955
 20
12.4238183893
 30
0.0
 10
18.515994031
 20
12.4225285987
 30
0.0
 10
18.518339746
 20
12.421884895
 30
0.0
 10
18.5194979232
 20
12.4217791813
 30
0.0
 10
18.5200680521
 20
12.4217790923
 30
0.0
  0
SPLINE
  5
38A
100
AcDbEntity
  8
0
100
AcDbSpline
 62
7
  6
BYLAYER
 70
0
 71
3
 72
15
 73
11
 74
0
 42
0.0000001
 43
0.0000001
 44
0.0000000001
 40
0.0
 40
0.0
 40
0.0
 40
0.0
 40
0.1639842599
 40
0.315435485
 40
0.4543864559
 40
0.5813405284
 40
0.6973101785
 40
0.803985338
 40
0.9038199057
 40
1.0
 40
1.0
 40
1.0
 40
1.0
 10
18.2905104296
 20
12.2628000435
 30
0.0
 10
18.2922830683
 20
12.2591877857
 30
0.0
 10
18.2959210279
 20
12.2523470379
 30
0.0
 10
18.3019201263
 20
12.2429336174
 30
0.0
 10
18.3082113904
 20
12.2348309307
 30
0.0
 10
18.3147572141
 20
12.2280942175
 30
0.0
 10
18.3215232759
 20
12.2227721087
 30
0.0
 10
18.3284768356
 20
12.2189121033
 30
0.0
 10
18.3355726027
 20
12.2165642927
 30
0.0
 10
18.3403971257
 20
12.2160347524
 30
0.0
 10
18.3427571433
 20
12.2160348316
 30
0.0
  0
SPLINE
  5
38B
100
AcDbEntity
  8
0
100
AcDbSpline
 62
7
  6
BYLAYER
 70
0
 71
3
 72
27
 73
23
 74
0
 42
0.0000001
 43
0.0000001
 44
0.0000000001
 40
0.0
 40
0.0
 40
0.0
 40
0.0
 40
0.0653514555
 40
0.132598025
 40
0.2012532557
 40
0.270757909
 40
0.3405122166
 40
0.4099045954
 40
0.4783406646
 40
0.5452723907
 40
0.6102282301
 40
0.6728438624
 40
0.7328941435
 40
0.790323847
 40
0.8181127005
 40
0.8453174557
 40
0.8719892266
 40
0.8981922956
 40
0.9240032814
 40
0.9495096602
 40
0.9748077237
 40
1.0
 40
1.0
 40
1.0
 40
1.0
 10
17.7310917293
 20
14.3164035574
 30
0.0
 10
17.7099501219
 20
14.3164035574
 30
0.0
 10
17.6670215297
 20
14.3138932242
 30
0.0
 10
17.6027001983
 20
14.3031107699
 30
0.0
 10
17.5385209669
 20
14.2854518908
 30
0.0
 10
17.475653214
 20
14.2612394502
 30
0.0
 10
17.4152297281
 20
14.2309125752
 30
0.0
 10
17.35834402
 20
14.1950195006
 30
0.0
 10
17.3060250485
 20
14.1542073851
 30
0.0
 10
17.2592204607
 20
14.1092090332
 30
0.0
 10
17.2187793035
 20
14.0608309568
 30
0.0
 10
17.1854394233
 20
14.0099316902
 30
0.0
 10
17.15981886
 20
13.9574251387
 30
0.0
 10
17.145145396
 20
13.9125886727
 30
0.0
 10
17.137842098
 20
13.8769275893
 30
0.0
 10
17.1345905524
 20
13.8506796107
 30
0.0
 10
17.1335242888
 20
13.8247652287
 30
0.0
 10
17.1346498462
 20
13.799302689
 30
0.0
 10
17.1379638189
 20
13.774410646
 30
0.0
 10
17.1434527929
 20
13.7502044428
 30
0.0
 10
17.1510911849
 20
13.7268000991
 30
0.0
 10
17.157600957
 20
13.7117884676
 30
0.0
 10
17.1611911658
 20
13.7044720054
 30
0.0
  0
SPLINE
  5
38C
100
AcDbEntity
  8
0
100
AcDbSpline
 62
7
  6
BYLAYER
 70
0
 71
3
 72
21
 73
17
 74
0
 42
0.0000001
 43
0.0000001
 44
0.0000000001
 40
0.0
 40
0.0
 40
0.0
 40
0.0
 40
0.1413097478
 40
0.2775592486
 40
0.3437423994
 40
0.4086070446
 40
0.4721753378
 40
0.5344899382
 40
0.5956155116
 40
0.6556385663
 40
0.7146670919
 40
0.7728298488
 40
0.830274428
 40
0.887164725
 40
0.9436778259
 40
1.0
 40
1.0
 40
1.0
 40
1.0
 10
17.7310917293
 20
14.3164035574
 30
0.0
 10
17.7494535713
 20
14.3164035574
 30
0.0
 10
17.7855506581
 20
14.314570811
 30
0.0
 10
17.8297403998
 20
14.3073783392
 30
0.0
 10
17.8633965697
 20
14.2987205529
 30
0.0
 10
17.8874650816
 20
14.2909040966
 30
0.0
 10
17.910510291
 20
14.2817310551
 30
0.0
 10
17.9324474095
 20
14.2712341641
 30
0.0
 10
17.9531947718
 20
14.2594516417
 30
0.0
 10
17.9726749773
 20
14.246426129
 30
0.0
 10
17.990814846
 20
14.2322049009
 30
0.0
 10
18.0075462598
 20
14.2168402372
 30
0.0
 10
18.0228059182
 20
14.200388905
 30
0.0
 10
18.0365359371
 20
14.1829112561
 30
0.0
 10
18.0486832563
 20
14.1644744993
 30
0.0
 10
18.0557019839
 20
14.1515783382
 30
0.0
 10
18.0589259695
 20
14.1450081998
 30
0.0
  0
SPLINE
  5
38D
100
AcDbEntity
  8
02___PRT_ALL_AXES
100
AcDbSpline
 62
7
  6
BYLAYER
 70
0
 71
3
 72
20
 73
16
 74
0
 42
0.0000001
 43
0.0000001
 44
0.0000000001
 40
0.0
 40
0.0
 40
0.0
 40
0.0
 40
0.132508604
 40
0.2012170556
 40
0.2707764574
 40
0.4098642846
 40
0.4783536746
 40
0.5453374364
 40
0.6727897416
 40
0.732886274
 40
0.7903601646
 40
0.8453533826
 40
0.8982209315
 40
0.9495254798
 40
1.0
 40
1.0
 40
1.0
 40
1.0
 10
17.7849776096
 20
13.6565317619
 30
0.0
 10
17.7903319744
 20
13.6565317619
 30
0.0
 10
17.7984890328
 20
13.6574942471
 30
0.0
 10
17.8090488578
 20
13.6604009857
 30
0.0
 10
17.8195219042
 20
13.6644340086
 30
0.0
 10
17.8293518341
 20
13.6699732707
 30
0.0
 10
17.8381124415
 20
13.6768079217
 30
0.0
 10
17.8457806041
 20
13.6841793463
 30
0.0
 10
17.8520352609
 20
13.6924854504
 30
0.0
 10
17.8563872891
 20
13.7014060645
 30
0.0
 10
17.8585640142
 20
13.7080566061
 30
0.0
 10
17.8596695645
 20
13.7146730417
 30
0.0
 10
17.8596766269
 20
13.7211363631
 30
0.0
 10
17.8585783967
 20
13.7273213526
 30
0.0
 10
17.8571127347
 20
13.7311945764
 30
0.0
 10
17.8562140465
 20
13.733025466
 30
0.0
  0
SPLINE
  5
38E
100
AcDbEntity
  8
02___PRT_ALL_AXES
100
AcDbSpline
 62
7
  6
BYLAYER
 70
0
 71
3
 72
11
 73
7
 74
0
 42
0.0000001
 43
0.0000001
 44
0.0000000001
 40
0.0
 40
0.0
 40
0.0
 40
0.0
 40
0.2644280716
 40
0.5170829352
 40
0.7609159252
 40
1.0
 40
1.0
 40
1.0
 40
1.0
 10
17.3420696911
 20
13.7054896937
 30
0.0
 10
17.3428038539
 20
13.7078654454
 30
0.0
 10
17.3438792172
 20
13.7126349216
 30
0.0
 10
17.3442024333
 20
13.7198229846
 30
0.0
 10
17.3431802067
 20
13.7267085158
 30
0.0
 10
17.341601326
 20
13.7310072138
 30
0.0
 10
17.3406106683
 20
13.7330254648
 30
0.0
  0
SPLINE
  5
38F
100
AcDbEntity
  8
02___PRT_ALL_AXES
100
AcDbSpline
 62
7
  6
BYLAYER
 70
0
 71
3
 72
20
 73
16
 74
0
 42
0.0000001
 43
0.0000001
 44
0.0000000001
 40
0.0
 40
0.0
 40
0.0
 40
0.0
 40
0.132508604
 40
0.2012170556
 40
0.2707764574
 40
0.4098642846
 40
0.4783536746
 40
0.5453374364
 40
0.6727897416
 40
0.732886274
 40
0.7903601646
 40
0.8453533826
 40
0.8982209315
 40
0.9495254798
 40
1.0
 40
1.0
 40
1.0
 40
1.0
 10
17.4048812353
 20
14.0950325796
 30
0.0
 10
17.4102356
 20
14.0950325796
 30
0.0
 10
17.4183926585
 20
14.0959950648
 30
0.0
 10
17.4289524835
 20
14.0989018034
 30
0.0
 10
17.4394255299
 20
14.1029348263
 30
0.0
 10
17.4492554598
 20
14.1084740884
 30
0.0
 10
17.4580160672
 20
14.1153087394
 30
0.0
 10
17.4656842298
 20
14.122680164
 30
0.0
 10
17.4719388866
 20
14.1309862681
 30
0.0
 10
17.4762909148
 20
14.1399068821
 30
0.0
 10
17.4784676399
 20
14.1465574238
 30
0.0
 10
17.4795731902
 20
14.1531738594
 30
0.0
 10
17.4795802526
 20
14.1596371807
 30
0.0
 10
17.4784820224
 20
14.1658221702
 30
0.0
 10
17.4770163604
 20
14.1696953941
 30
0.0
 10
17.4761176722
 20
14.1715262837
 30
0.0
  0
SPLINE
  5
390
100
AcDbEntity
  8
02___PRT_ALL_AXES
100
AcDbSpline
 62
7
  6
BYLAYER
 70
0
 71
3
 72
11
 73
7
 74
0
 42
0.0000001
 43
0.0000001
 44
0.0000000001
 40
0.0
 40
0.0
 40
0.0
 40
0.0
 40
0.2644280716
 40
0.5170829352
 40
0.7609159252
 40
1.0
 40
1.0
 40
1.0
 40
1.0
 10
17.9931800685
 20
14.1439905114
 30
0.0
 10
17.9939142312
 20
14.146366263
 30
0.0
 10
17.9949895946
 20
14.1511357393
 30
0.0
 10
17.9953128107
 20
14.1583238023
 30
0.0
 10
17.9942905841
 20
14.1652093335
 30
0.0
 10
17.9927117034
 20
14.1695080315
 30
0.0
 10
17.9917210456
 20
14.1715262825
 30
0.0
  0
SPLINE
  5
391
100
AcDbEntity
  8
0
100
AcDbSpline
 62
7
  6
BYLAYER
 70
0
 71
3
 72
14
 73
10
 74
0
 42
0.0000001
 43
0.0000001
 44
0.0000000001
 40
0.0
 40
0.0
 40
0.0
 40
0.0
 40
0.2772438701
 40
0.4083488628
 40
0.534316972
 40
0.6555619668
 40
0.7728347907
 40
0.8872056024
 40
1.0
 40
1.0
 40
1.0
 40
1.0
 10
17.5697141804
 20
13.7941856176
 30
0.0
 10
17.5578085047
 20
13.7941856176
 30
0.0
 10
17.5401677378
 20
13.7959235386
 30
0.0
 10
17.5180602635
 20
13.8022365606
 30
0.0
 10
17.5030897814
 20
13.8086755154
 30
0.0
 10
17.4896598862
 20
13.8168183082
 30
0.0
 10
17.4779695272
 20
13.8265569687
 30
0.0
 10
17.4682046389
 20
13.8377491926
 30
0.0
 10
17.463063395
 20
13.8461026846
 30
0.0
 10
17.4608798016
 20
13.8504262951
 30
0.0
  0
SPLINE
  5
392
100
AcDbEntity
  8
0
100
AcDbSpline
 62
7
  6
BYLAYER
 70
0
 71
3
 72
22
 73
18
 74
0
 42
0.0000001
 43
0.0000001
 44
0.0000000001
 40
0.0
 40
0.0
 40
0.0
 40
0.0
 40
0.0504437972
 40
0.1017588044
 40
0.1546638689
 40
0.2097067112
 40
0.2672290484
 40
0.3273626024
 40
0.3900454096
 40
0.4550484579
 40
0.522006407
 40
0.590448809
 40
0.6598305279
 40
0.7295611999
 40
0.7990339375
 40
0.8676546358
 40
1.0
 40
1.0
 40
1.0
 40
1.0
 10
17.7601116222
 20
13.9972724582
 30
0.0
 10
17.7624441518
 20
13.9923790154
 30
0.0
 10
17.7662261925
 20
13.9820381409
 30
0.0
 10
17.7689814082
 20
13.9655598105
 30
0.0
 10
17.7688116732
 20
13.9483622037
 30
0.0
 10
17.7657373413
 20
13.9307745275
 30
0.0
 10
17.759833822
 20
13.9131128182
 30
0.0
 10
17.751220765
 20
13.8956904603
 30
0.0
 10
17.7400612135
 20
13.8788138902
 30
0.0
 10
17.7265599548
 20
13.8627804184
 30
0.0
 10
17.7109614101
 20
13.8478735918
 30
0.0
 10
17.6935466016
 20
13.8343582817
 30
0.0
 10
17.6746279691
 20
13.822475467
 30
0.0
 10
17.6545472236
 20
13.8124381787
 30
0.0
 10
17.6336573749
 20
13.8044251194
 30
0.0
 10
17.6056039819
 20
13.7967328208
 30
0.0
 10
17.5839366404
 20
13.7941856176
 30
0.0
 10
17.5697141804
 20
13.7941856176
 30
0.0
  0
SPLINE
  5
393
100
AcDbEntity
  8
0
100
AcDbSpline
 62
7
  6
BYLAYER
 70
0
 71
3
 72
31
 73
27
 74
0
 42
0.0000001
 43
0.0000001
 44
0.0000000001
 40
0.0
 40
0.0
 40
0.0
 40
0.0
 40
0.0155006459
 40
0.0315033822
 40
0.0484546371
 40
0.0667109892
 40
0.0865313027
 40
0.10808554
 40
0.1314693035
 40
0.1567186535
 40
0.18382257
 40
0.2127323091
 40
0.2433682335
 40
0.2756256102
 40
0.3444718938
 40
0.4180908226
 40
0.4950894771
 40
0.5739485634
 40
0.6530827198
 40
0.7308969124
 40
0.8058425994
 40
0.8764763492
 40
0.909777144
 40
0.9415396081
 40
0.9716486497
 40
1.0
 40
1.0
 40
1.0
 40
1.0
 10
18.342755679
 20
12.6477013714
 30
0.0
 10
18.340584009
 20
12.6477012985
 30
0.0
 10
18.3361586352
 20
12.6472553185
 30
0.0
 10
18.3296273294
 20
12.6452720354
 30
0.0
 10
18.3232040324
 20
12.6420023862
 30
0.0
 10
18.3169269138
 20
12.6374827755
 30
0.0
 10
18.3108235474
 20
12.6317489502
 30
0.0
 10
18.3049222659
 20
12.6248375059
 30
0.0
 10
18.2992519948
 20
12.6167889427
 30
0.0
 10
18.2938426216
 20
12.6076493508
 30
0.0
 10
18.2887241022
 20
12.5974710782
 30
0.0
 10
18.2839258445
 20
12.5863129072
 30
0.0
 10
18.2794754368
 20
12.5742397954
 30
0.0
 10
18.2739205327
 20
12.5566325898
 30
0.0
 10
18.2680967172
 20
12.5328266762
 30
0.0
 10
18.2629836991
 20
12.502484329
 30
0.0
 10
18.2597272081
 20
12.4704777269
 30
0.0
 10
18.2584058312
 20
12.4375616172
 30
0.0
 10
18.2590520302
 20
12.4045112321
 30
0.0
 10
18.261649734
 20
12.3721053552
 30
0.0
 10
18.2661364248
 20
12.3411087345
 30
0.0
 10
18.2714573526
 20
12.3165913125
 30
0.0
 10
18.2766311419
 20
12.2982921438
 30
0.0
 10
18.2808268872
 20
12.2856303438
 30
0.0
 10
18.2853887028
 20
12.2738362525
 30
0.0
 10
18.2887605596
 20
12.2663659037
 30
0.0
 10
18.2905104296
 20
12.2628000435
 30
0.0
  0
SPLINE
  5
394
100
AcDbEntity
  8
02___PRT_ALL_AXES
100
AcDbSpline
 62
7
  6
BYLAYER
 70
0
 71
3
 72
22
 73
18
 74
0
 42
0.0000001
 43
0.0000001
 44
0.0000000001
 40
0.0
 40
0.0
 40
0.0
 40
0.0
 40
0.0506985541
 40
0.1025340257
 40
0.1564630599
 40
0.2131411442
 40
0.2728790378
 40
0.335658398
 40
0.4011788449
 40
0.4689164618
 40
0.5381838982
 40
0.6081888152
 40
0.7468182992
 40
0.8140725454
 40
0.8789651184
 40
0.941018313
 40
1.0
 40
1.0
 40
1.0
 40
1.0
 10
17.879506467
 20
14.1164547403
 30
0.0
 10
17.8805616021
 20
14.1143051308
 30
0.0
 10
17.8831892279
 20
14.1101820056
 30
0.0
 10
17.8884491841
 20
14.1049169076
 30
0.0
 10
17.8948952246
 20
14.1006662031
 30
0.0
 10
17.9023489983
 20
14.0975299801
 30
0.0
 10
17.9106192292
 20
14.0955726238
 30
0.0
 10
17.9194998466
 20
14.0948332952
 30
0.0
 10
17.928772555
 20
14.0953241606
 30
0.0
 10
17.938208815
 20
14.097029395
 30
0.0
 10
17.9475786196
 20
14.0999062452
 30
0.0
 10
17.9596189621
 20
14.1051831294
 30
0.0
 10
17.9706198649
 20
14.1124298319
 30
0.0
 10
17.9798770678
 20
14.1212920263
 30
0.0
 10
17.9856565207
 20
14.1284518403
 30
0.0
 10
17.9901885615
 20
14.1360072119
 30
0.0
 10
17.9923575579
 20
14.1413288664
 30
0.0
 10
17.9931800685
 20
14.1439905114
 30
0.0
  0
SPLINE
  5
395
100
AcDbEntity
  8
02___PRT_ALL_AXES
100
AcDbSpline
 62
7
  6
BYLAYER
 70
0
 71
3
 72
11
 73
7
 74
0
 42
0.0000001
 43
0.0000001
 44
0.0000000001
 40
0.0
 40
0.0
 40
0.0
 40
0.0
 40
0.2464859593
 40
0.499996602
 40
0.7535093246
 40
1.0
 40
1.0
 40
1.0
 40
1.0
 10
17.979441914
 20
14.1211701208
 30
0.0
 10
17.9745520037
 20
14.120725898
 30
0.0
 10
17.9647039273
 20
14.1188289193
 30
0.0
 10
17.9506376767
 20
14.1133835997
 30
0.0
 10
17.9377233224
 20
14.1055903616
 30
0.0
 10
17.9301968631
 20
14.0989618104
 30
0.0
 10
17.9268531104
 20
14.0953661467
 30
0.0
  0
SPLINE
  5
396
100
AcDbEntity
  8
02___PRT_ALL_AXES
100
AcDbSpline
 62
7
  6
BYLAYER
 70
0
 71
3
 72
14
 73
10
 74
0
 42
0.0000001
 43
0.0000001
 44
0.0000000001
 40
0.0
 40
0.0
 40
0.0
 40
0.0
 40
0.1128399572
 40
0.2271853011
 40
0.3443969944
 40
0.4655774191
 40
0.5915072796
 40
0.722607523
 40
1.0
 40
1.0
 40
1.0
 40
1.0
 10
17.3639030888
 20
14.1164547391
 30
0.0
 10
17.3647098869
 20
14.1148110562
 30
0.0
 10
17.3666189611
 20
14.1116332907
 30
0.0
 10
17.3702705203
 20
14.1073712457
 30
0.0
 10
17.3746598014
 20
14.1036608765
 30
0.0
 10
17.3797156296
 20
14.1005573011
 30
0.0
 10
17.3853616532
 20
14.0981026478
 30
0.0
 10
17.3937110607
 20
14.0956948234
 30
0.0
 10
17.4003800828
 20
14.0950325796
 30
0.0
 10
17.4048812353
 20
14.0950325796
 30
0.0
  0
SPLINE
  5
397
100
AcDbEntity
  8
0
100
AcDbSpline
 62
7
  6
BYLAYER
 70
0
 71
3
 72
9
 73
5
 74
0
 42
0.0000001
 43
0.0000001
 44
0.0000000001
 40
0.0
 40
0.0
 40
0.0
 40
0.0
 40
0.5033097023
 40
1.0
 40
1.0
 40
1.0
 40
1.0
 10
17.8820166103
 20
13.3440931134
 30
0.0
 10
17.8762523484
 20
13.3455555994
 30
0.0
 10
17.864614571
 20
13.3477821076
 30
0.0
 10
17.8527872606
 20
13.3485347869
 30
0.0
 10
17.846918576
 20
13.3485347733
 30
0.0
  0
SPLINE
  5
398
100
AcDbEntity
  8
02___PRT_ALL_AXES
100
AcDbSpline
 62
7
  6
BYLAYER
 70
0
 71
3
 72
11
 73
7
 74
0
 42
0.0000001
 43
0.0000001
 44
0.0000000001
 40
0.0
 40
0.0
 40
0.0
 40
0.0
 40
0.2464859593
 40
0.499996602
 40
0.7535093246
 40
1.0
 40
1.0
 40
1.0
 40
1.0
 10
17.3283315367
 20
13.6826693032
 30
0.0
 10
17.3234416263
 20
13.6822250803
 30
0.0
 10
17.3135935499
 20
13.6803281017
 30
0.0
 10
17.2995272993
 20
13.6748827821
 30
0.0
 10
17.286612945
 20
13.6670895439
 30
0.0
 10
17.2790864857
 20
13.6604609927
 30
0.0
 10
17.275742733
 20
13.656865329
 30
0.0
  0
SPLINE
  5
399
100
AcDbEntity
  8
02___PRT_ALL_AXES
100
AcDbSpline
 62
7
  6
BYLAYER
 70
0
 71
3
 72
22
 73
18
 74
0
 42
0.0000001
 43
0.0000001
 44
0.0000000001
 40
0.0
 40
0.0
 40
0.0
 40
0.0
 40
0.0506985541
 40
0.1025340257
 40
0.1564630599
 40
0.2131411442
 40
0.2728790378
 40
0.335658398
 40
0.4011788449
 40
0.4689164618
 40
0.5381838982
 40
0.6081888152
 40
0.7468182992
 40
0.8140725454
 40
0.8789651184
 40
0.941018313
 40
1.0
 40
1.0
 40
1.0
 40
1.0
 10
17.2283960897
 20
13.6779539226
 30
0.0
 10
17.2294512247
 20
13.6758043131
 30
0.0
 10
17.2320788505
 20
13.6716811879
 30
0.0
 10
17.2373388067
 20
13.66641609
 30
0.0
 10
17.2437848472
 20
13.6621653855
 30
0.0
 10
17.251238621
 20
13.6590291625
 30
0.0
 10
17.2595088518
 20
13.6570718061
 30
0.0
 10
17.2683894692
 20
13.6563324775
 30
0.0
 10
17.2776621776
 20
13.6568233429
 30
0.0
 10
17.2870984376
 20
13.6585285773
 30
0.0
 10
17.2964682423
 20
13.6614054276
 30
0.0
 10
17.3085085847
 20
13.6666823117
 30
0.0
 10
17.3195094875
 20
13.6739290142
 30
0.0
 10
17.3287666904
 20
13.6827912087
 30
0.0
 10
17.3345461434
 20
13.6899510227
 30
0.0
 10
17.3390781842
 20
13.6975063942
 30
0.0
 10
17.3412471806
 20
13.7028280487
 30
0.0
 10
17.3420696911
 20
13.7054896937
 30
0.0
  0
SPLINE
  5
39A
100
AcDbEntity
  8
02___PRT_ALL_AXES
100
AcDbSpline
 62
7
  6
BYLAYER
 70
0
 71
3
 72
14
 73
10
 74
0
 42
0.0000001
 43
0.0000001
 44
0.0000000001
 40
0.0
 40
0.0
 40
0.0
 40
0.0
 40
0.1128399572
 40
0.2271853011
 40
0.3443969944
 40
0.4655774191
 40
0.5915072796
 40
0.722607523
 40
1.0
 40
1.0
 40
1.0
 40
1.0
 10
17.7439994631
 20
13.6779539215
 30
0.0
 10
17.7448062613
 20
13.6763102385
 30
0.0
 10
17.7467153354
 20
13.6731324731
 30
0.0
 10
17.7503668946
 20
13.668870428
 30
0.0
 10
17.7547561757
 20
13.6651600589
 30
0.0
 10
17.7598120039
 20
13.6620564835
 30
0.0
 10
17.7654580275
 20
13.6596018301
 30
0.0
 10
17.773807435
 20
13.6571940057
 30
0.0
 10
17.7804764571
 20
13.6565317619
 30
0.0
 10
17.7849776096
 20
13.6565317619
 30
0.0
  0
SPLINE
  5
39B
100
AcDbEntity
  8
02___PRT_ALL_AXES
100
AcDbSpline
 62
7
  6
BYLAYER
 70
0
 71
3
 72
17
 73
13
 74
0
 42
0.0000001
 43
0.0000001
 44
0.0000000001
 40
0.0
 40
0.0
 40
0.0
 40
0.0
 40
0.1400439964
 40
0.2805866276
 40
0.4182911165
 40
0.5501985352
 40
0.6741881049
 40
0.7894510449
 40
0.8441495664
 40
0.8971807145
 40
0.9489606063
 40
1.0
 40
1.0
 40
1.0
 40
1.0
 10
18.0170109857
 20
12.6501270225
 30
0.0
 10
18.014577008
 20
12.6482994448
 30
0.0
 10
18.0093837649
 20
12.645041779
 30
0.0
 10
18.0009746916
 20
12.6414898352
 30
0.0
 10
17.99226781
 20
12.6393900581
 30
0.0
 10
17.9836820128
 20
12.6388516045
 30
0.0
 10
17.9756293626
 20
12.6399088048
 30
0.0
 10
17.96957081
 20
12.6421460109
 30
0.0
 10
17.965432164
 20
12.6446935252
 30
0.0
 10
17.9627507955
 20
12.6469103312
 30
0.0
 10
17.9604769551
 20
12.6494372821
 30
0.0
 10
17.9592477215
 20
12.6513161759
 30
0.0
 10
17.9587147591
 20
12.6522890512
 30
0.0
  0
SPLINE
  5
39C
100
AcDbEntity
  8
0
100
AcDbSpline
 62
7
  6
BYLAYER
 70
0
 71
3
 72
21
 73
17
 74
0
 42
0.0000001
 43
0.0000001
 44
0.0000000001
 40
0.0
 40
0.0
 40
0.0
 40
0.0
 40
0.0563221741
 40
0.112835275
 40
0.169725572
 40
0.2271701512
 40
0.2853329081
 40
0.3443614337
 40
0.4043844884
 40
0.4655100618
 40
0.5278246622
 40
0.5913929554
 40
0.6562576006
 40
0.7224407514
 40
0.8586902522
 40
1.0
 40
1.0
 40
1.0
 40
1.0
 10
17.1962709805
 20
13.632986859
 30
0.0
 10
17.199494966
 20
13.6264167206
 30
0.0
 10
17.2065136936
 20
13.6135205595
 30
0.0
 10
17.2186610128
 20
13.5950838027
 30
0.0
 10
17.2323910318
 20
13.5776061538
 30
0.0
 10
17.2476506902
 20
13.5611548216
 30
0.0
 10
17.264382104
 20
13.5457901579
 30
0.0
 10
17.2825219726
 20
13.5315689298
 30
0.0
 10
17.3020021782
 20
13.5185434171
 30
0.0
 10
17.3227495405
 20
13.5067608947
 30
0.0
 10
17.344686659
 20
13.4962640037
 30
0.0
 10
17.3677318683
 20
13.4870909622
 30
0.0
 10
17.3918003802
 20
13.4792745059
 30
0.0
 10
17.4254565502
 20
13.4706167196
 30
0.0
 10
17.4696462919
 20
13.4634242478
 30
0.0
 10
17.5057433787
 20
13.4615915014
 30
0.0
 10
17.5241052206
 20
13.4615915014
 30
0.0
  0
SPLINE
  5
39D
100
AcDbEntity
  8
0
100
AcDbSpline
 62
7
  6
BYLAYER
 70
0
 71
3
 72
27
 73
23
 74
0
 42
0.0000001
 43
0.0000001
 44
0.0000000001
 40
0.0
 40
0.0
 40
0.0
 40
0.0
 40
0.0251922763
 40
0.0504903398
 40
0.0759967186
 40
0.1018077044
 40
0.1280107734
 40
0.1546825443
 40
0.1818872995
 40
0.209676153
 40
0.2671058565
 40
0.3271561376
 40
0.3897717699
 40
0.4547276093
 40
0.5216593354
 40
0.5900954046
 40
0.6594877834
 40
0.729242091
 40
0.7987467443
 40
0.867401975
 40
0.9346485445
 40
1.0
 40
1.0
 40
1.0
 40
1.0
 10
18.0940057841
 20
14.0735230534
 30
0.0
 10
18.0975959929
 20
14.0662065912
 30
0.0
 10
18.104105765
 20
14.0511949597
 30
0.0
 10
18.1117441571
 20
14.027790616
 30
0.0
 10
18.117233131
 20
14.0035844128
 30
0.0
 10
18.1205471037
 20
13.9786923698
 30
0.0
 10
18.1216726611
 20
13.9532298301
 30
0.0
 10
18.1206063975
 20
13.9273154481
 30
0.0
 10
18.1173548519
 20
13.9010674695
 30
0.0
 10
18.110051554
 20
13.8654063861
 30
0.0
 10
18.09537809
 20
13.8205699201
 30
0.0
 10
18.0697575266
 20
13.7680633686
 30
0.0
 10
18.0364176464
 20
13.717164102
 30
0.0
 10
17.9959764892
 20
13.6687860256
 30
0.0
 10
17.9491719014
 20
13.6237876737
 30
0.0
 10
17.8968529299
 20
13.5829755582
 30
0.0
 10
17.8399672219
 20
13.5470824836
 30
0.0
 10
17.7795437359
 20
13.5167556086
 30
0.0
 10
17.7166759831
 20
13.492543168
 30
0.0
 10
17.6524967516
 20
13.4748842889
 30
0.0
 10
17.5881754202
 20
13.4641018346
 30
0.0
 10
17.5452468281
 20
13.4615915014
 30
0.0
 10
17.5241052206
 20
13.4615915014
 30
0.0
  0
SPLINE
  5
39E
100
AcDbEntity
  8
02___PRT_ALL_AXES
100
AcDbSpline
 62
7
  6
BYLAYER
 70
0
 71
3
 72
15
 73
11
 74
0
 42
0.0000001
 43
0.0000001
 44
0.0000000001
 40
0.0
 40
0.0
 40
0.0
 40
0.0
 40
0.0858514607
 40
0.1774209735
 40
0.2792207128
 40
0.3941366111
 40
0.523634043
 40
0.6680989617
 40
0.827213888
 40
1.0
 40
1.0
 40
1.0
 40
1.0
 10
18.520070022
 20
12.5467789944
 30
0.0
 10
18.5191497446
 20
12.5467791382
 30
0.0
 10
18.5172382861
 20
12.546493139
 30
0.0
 10
18.5144833568
 20
12.5452484323
 30
0.0
 10
18.5118352581
 20
12.543234439
 30
0.0
 10
18.5093135913
 20
12.5404914279
 30
0.0
 10
18.5069361777
 20
12.5370546715
 30
0.0
 10
18.5047257393
 20
12.5329638232
 30
0.0
 10
18.5027076652
 20
12.5282672132
 30
0.0
 10
18.5015507676
 20
12.5248992645
 30
0.0
 10
18.5010039204
 20
12.5231296664
 30
0.0
  0
SPLINE
  5
39F
100
AcDbEntity
  8
02___PRT_ALL_AXES
100
AcDbSpline
 62
7
  6
BYLAYER
 70
0
 71
3
 72
25
 73
21
 74
0
 42
0.0000001
 43
0.0000001
 44
0.0000000001
 40
0.0
 40
0.0
 40
0.0
 40
0.0
 40
0.0155034836
 40
0.0315088859
 40
0.0484627513
 40
0.0667217116
 40
0.1080391413
 40
0.1566409263
 40
0.2126384539
 40
0.2755247381
 40
0.344383399
 40
0.4180159583
 40
0.4950291248
 40
0.5739033578
 40
0.6530528788
 40
0.7308823758
 40
0.8058427414
 40
0.876490919
 40
0.9415505141
 40
1.0
 40
1.0
 40
1.0
 40
1.0
 10
18.3631671782
 20
12.0390412034
 30
0.0
 10
18.3625383108
 20
12.039041303
 30
0.0
 10
18.3612568092
 20
12.038912265
 30
0.0
 10
18.359365475
 20
12.0383381796
 30
0.0
 10
18.3575052933
 20
12.0373916387
 30
0.0
 10
18.3549782114
 20
12.0355714905
 30
0.0
 10
18.3519735399
 20
12.0323173334
 30
0.0
 10
18.3488014559
 20
12.0272964872
 30
0.0
 10
18.3459657011
 20
12.0211048881
 30
0.0
 10
18.3435292411
 20
12.0138784457
 30
0.0
 10
18.3415468317
 20
12.005778181
 30
0.0
 10
18.3400662189
 20
11.9969913045
 30
0.0
 10
18.3391230862
 20
11.9877229767
 30
0.0
 10
18.3387403912
 20
11.978191097
 30
0.0
 10
18.3389274256
 20
11.9686203175
 30
0.0
 10
18.3396796732
 20
11.9592362525
 30
0.0
 10
18.3409787456
 20
11.9502598906
 30
0.0
 10
18.3427934226
 20
11.9419010074
 30
0.0
 10
18.3450793551
 20
11.9343552604
 30
0.0
 10
18.3469925719
 20
11.929711741
 30
0.0
 10
18.348037048
 20
11.9275833226
 30
0.0
  0
SPLINE
  5
3A0
100
AcDbEntity
  8
0
100
AcDbSpline
 62
7
  6
BYLAYER
 70
0
 71
3
 72
23
 73
19
 74
0
 42
0.0000001
 43
0.0000001
 44
0.0000000001
 40
0.0
 40
0.0
 40
0.0
 40
0.0
 40
0.0879759024
 40
0.1726904806
 40
0.2539689705
 40
0.3316909707
 40
0.405756241
 40
0.4760975526
 40
0.5426894498
 40
0.6055535806
 40
0.6647666286
 40
0.7204708764
 40
0.7728865809
 40
0.8223229595
 40
0.8691891245
 40
0.9140001462
 40
0.9573715124
 40
1.0
 40
1.0
 40
1.0
 40
1.0
 10
18.049682698
 20
12.7944739163
 30
0.0
 10
18.0522833569
 20
12.8028896516
 30
0.0
 10
18.0576527653
 20
12.819329111
 30
0.0
 10
18.0663887608
 20
12.8432151841
 30
0.0
 10
18.0756333024
 20
12.865804592
 30
0.0
 10
18.0853567323
 20
12.8870254334
 30
0.0
 10
18.0955289321
 20
12.9068123567
 30
0.0
 10
18.1061185307
 20
12.9251036224
 30
0.0
 10
18.1170932649
 20
12.9418423709
 30
0.0
 10
18.1284199792
 20
12.9569769709
 30
0.0
 10
18.1400653806
 20
12.9704604965
 30
0.0
 10
18.1519962689
 20
12.9822504906
 30
0.0
 10
18.164179094
 20
12.9923090376
 30
0.0
 10
18.1765805375
 20
13.0006014026
 30
0.0
 10
18.1891658601
 20
13.0070952003
 30
0.0
 10
18.2018982973
 20
13.0117610641
 30
0.0
 10
18.2147314849
 20
13.0145731603
 30
0.0
 10
18.2233545873
 20
13.0152012815
 30
0.0
 10
18.2276226771
 20
13.0152013619
 30
0.0
  0
SPLINE
  5
3A1
100
AcDbEntity
  8
0
100
AcDbSpline
 62
7
  6
BYLAYER
 70
0
 71
3
 72
36
 73
32
 74
0
 42
0.0000001
 43
0.0000001
 44
0.0000000001
 40
0.0
 40
0.0
 40
0.0
 40
0.0
 40
0.0330527536
 40
0.0673881628
 40
0.1028792742
 40
0.1393947529
 40
0.2149134447
 40
0.2927428986
 40
0.3716034902
 40
0.4501858921
 40
0.5271887022
 40
0.5647069007
 40
0.6013655442
 40
0.6370215618
 40
0.6715399829
 40
0.7047955387
 40
0.7366743946
 40
0.7670761434
 40
0.7959161907
 40
0.8231286756
 40
0.8486701587
 40
0.8725243466
 40
0.894708055
 40
0.9152788456
 40
0.9343443748
 40
0.9520727912
 40
0.9687019683
 40
0.9767057006
 40
0.984557061
 40
0.9923047761
 40
1.0
 40
1.0
 40
1.0
 40
1.0
 10
18.049682698
 20
12.7944739163
 30
0.0
 10
18.0463167173
 20
12.7835815988
 30
0.0
 10
18.0399123706
 20
12.7612305172
 30
0.0
 10
18.031415071
 20
12.7267705357
 30
0.0
 10
18.0238747192
 20
12.690867068
 30
0.0
 10
18.015048891
 20
12.6407464312
 30
0.0
 10
18.0067224472
 20
12.5757470449
 30
0.0
 10
18.0010914727
 20
12.4958120548
 30
0.0
 10
17.999825814
 20
12.4146311315
 30
0.0
 10
18.0029507447
 20
12.3337877698
 30
0.0
 10
18.0092139151
 20
12.2674374409
 30
0.0
 10
18.016423257
 20
12.2157865414
 30
0.0
 10
18.0228153057
 20
12.1784395815
 30
0.0
 10
18.0302066214
 20
12.1423327426
 30
0.0
 10
18.0385611488
 20
12.1076419954
 30
0.0
 10
18.0478377593
 20
12.0745365367
 30
0.0
 10
18.0579909834
 20
12.0431774226
 30
0.0
 10
18.0689712182
 20
12.0137168531
 30
0.0
 10
18.0807251271
 20
11.9862973277
 30
0.0
 10
18.0931961143
 20
11.9610508815
 30
0.0
 10
18.1063249694
 20
11.9380983838
 30
0.0
 10
18.1200505706
 20
11.9175490012
 30
0.0
 10
18.134311204
 20
11.8995000912
 30
0.0
 10
18.1490451493
 20
11.8840379061
 30
0.0
 10
18.1641935872
 20
11.8712390894
 30
0.0
 10
18.1796932743
 20
11.8611750162
 30
0.0
 10
18.1930278574
 20
11.855046007
 30
0.0
 10
18.2037184089
 20
11.8516535129
 30
0.0
 10
18.2116692171
 20
11.8498553638
 30
0.0
 10
18.2196409911
 20
11.848775091
 30
0.0
 10
18.2249706626
 20
11.8485347911
 30
0.0
 10
18.2276248966
 20
11.8485348411
 30
0.0
  0
SPLINE
  5
3A2
100
AcDbEntity
  8
02___PRT_ALL_AXES
100
AcDbSpline
 62
7
  6
BYLAYER
 70
0
 71
3
 72
15
 73
11
 74
0
 42
0.0000001
 43
0.0000001
 44
0.0000000001
 40
0.0
 40
0.0
 40
0.0
 40
0.0
 40
0.0858514607
 40
0.1774209735
 40
0.2792207128
 40
0.3941366111
 40
0.523634043
 40
0.6680989617
 40
0.827213888
 40
1.0
 40
1.0
 40
1.0
 40
1.0
 10
18.1654447701
 20
12.4419571107
 30
0.0
 10
18.1645244926
 20
12.4419572545
 30
0.0
 10
18.1626130341
 20
12.4416712553
 30
0.0
 10
18.1598581049
 20
12.4404265486
 30
0.0
 10
18.1572100061
 20
12.4384125553
 30
0.0
 10
18.1546883394
 20
12.4356695442
 30
0.0
 10
18.1523109258
 20
12.4322327878
 30
0.0
 10
18.1501004873
 20
12.4281419395
 30
0.0
 10
18.1480824132
 20
12.4234453295
 30
0.0
 10
18.1469255156
 20
12.4200773808
 30
0.0
 10
18.1463786685
 20
12.4183077827
 30
0.0
  0
SPLINE
  5
3A3
100
AcDbEntity
  8
02___PRT_ALL_AXES
100
AcDbSpline
 62
7
  6
BYLAYER
 70
0
 71
3
 72
11
 73
7
 74
0
 42
0.0000001
 43
0.0000001
 44
0.0000000001
 40
0.0
 40
0.0
 40
0.0
 40
0.0
 40
0.2464915919
 40
0.5000011483
 40
0.753511512
 40
1.0
 40
1.0
 40
1.0
 40
1.0
 10
17.8439350191
 20
13.6826692632
 30
0.0
 10
17.839044963
 20
13.6822251317
 30
0.0
 10
17.8291967543
 20
13.6803279998
 30
0.0
 10
17.8151303993
 20
13.6748826588
 30
0.0
 10
17.8022161029
 20
13.6670893809
 30
0.0
 10
17.7946897019
 20
13.6604608289
 30
0.0
 10
17.7913459723
 20
13.6568651694
 30
0.0
  0
SPLINE
  5
3A4
100
AcDbEntity
  8
02___PRT_ALL_AXES
100
AcDbSpline
 62
7
  6
BYLAYER
 70
0
 71
3
 72
11
 73
7
 74
0
 42
0.0000001
 43
0.0000001
 44
0.0000000001
 40
0.0
 40
0.0
 40
0.0
 40
0.0
 40
0.2464915919
 40
0.5000011483
 40
0.753511512
 40
1.0
 40
1.0
 40
1.0
 40
1.0
 10
17.4638386448
 20
14.1211700809
 30
0.0
 10
17.4589485887
 20
14.1207259494
 30
0.0
 10
17.44910038
 20
14.1188288174
 30
0.0
 10
17.435034025
 20
14.1133834765
 30
0.0
 10
17.4221197286
 20
14.1055901986
 30
0.0
 10
17.4145933276
 20
14.0989616466
 30
0.0
 10
17.411249598
 20
14.0953659871
 30
0.0
  0
SPLINE
  5
3A5
100
AcDbEntity
  8
02___PRT_ALL_AXES
100
AcDbSpline
 62
7
  6
BYLAYER
 70
0
 71
3
 72
25
 73
21
 74
0
 42
0.0000001
 43
0.0000001
 44
0.0000000001
 40
0.0
 40
0.0
 40
0.0
 40
0.0
 40
0.0155034836
 40
0.0315088859
 40
0.0484627513
 40
0.0667217116
 40
0.1080391413
 40
0.1566409263
 40
0.2126384539
 40
0.2755247381
 40
0.344383399
 40
0.4180159583
 40
0.4950291248
 40
0.5739033578
 40
0.6530528788
 40
0.7308823758
 40
0.8058427414
 40
0.876490919
 40
0.9415505141
 40
1.0
 40
1.0
 40
1.0
 40
1.0
 10
18.322347614
 20
12.9496948975
 30
0.0
 10
18.3217187466
 20
12.9496949971
 30
0.0
 10
18.320437245
 20
12.949565959
 30
0.0
 10
18.3185459108
 20
12.9489918736
 30
0.0
 10
18.3166857291
 20
12.9480453327
 30
0.0
 10
18.3141586472
 20
12.9462251845
 30
0.0
 10
18.3111539757
 20
12.9429710274
 30
0.0
 10
18.3079818917
 20
12.9379501813
 30
0.0
 10
18.3051461369
 20
12.9317585822
 30
0.0
 10
18.3027096769
 20
12.9245321397
 30
0.0
 10
18.3007272675
 20
12.9164318751
 30
0.0
 10
18.2992466548
 20
12.9076449986
 30
0.0
 10
18.298303522
 20
12.8983766708
 30
0.0
 10
18.297920827
 20
12.8888447911
 30
0.0
 10
18.2981078614
 20
12.8792740115
 30
0.0
 10
18.298860109
 20
12.8698899465
 30
0.0
 10
18.3001591814
 20
12.8609135847
 30
0.0
 10
18.3019738584
 20
12.8525547015
 30
0.0
 10
18.3042597909
 20
12.8450089544
 30
0.0
 10
18.3061730078
 20
12.8403654351
 30
0.0
 10
18.3072174838
 20
12.8382370167
 30
0.0
  0
SPLINE
  5
3A6
100
AcDbEntity
  8
0
100
AcDbSpline
 62
7
  6
BYLAYER
 70
0
 71
3
 72
36
 73
32
 74
0
 42
0.0000001
 43
0.0000001
 44
0.0000000001
 40
0.0
 40
0.0
 40
0.0
 40
0.0
 40
0.0076952239
 40
0.015442939
 40
0.0232942994
 40
0.0312980317
 40
0.0479272088
 40
0.0656556252
 40
0.0847211544
 40
0.105291945
 40
0.1274756534
 40
0.1513298413
 40
0.1768713244
 40
0.2040838093
 40
0.2329238566
 40
0.2633256054
 40
0.2952044613
 40
0.3284600171
 40
0.3629784382
 40
0.3986344558
 40
0.4352930993
 40
0.4728112978
 40
0.5498141079
 40
0.6283965098
 40
0.7072571014
 40
0.7850865553
 40
0.8606052471
 40
0.8971207258
 40
0.9326118372
 40
0.9669472464
 40
1.0
 40
1.0
 40
1.0
 40
1.0
 10
18.3427553014
 20
13.0152013619
 30
0.0
 10
18.3454095353
 20
13.0152014118
 30
0.0
 10
18.3507392069
 20
13.0149611119
 30
0.0
 10
18.3587109809
 20
13.0138808392
 30
0.0
 10
18.3666617891
 20
13.01208269
 30
0.0
 10
18.3773523406
 20
13.0086901959
 30
0.0
 10
18.3906869236
 20
13.0025611867
 30
0.0
 10
18.4061866108
 20
12.9924971136
 30
0.0
 10
18.4213350486
 20
12.9796982968
 30
0.0
 10
18.436068994
 20
12.9642361118
 30
0.0
 10
18.4503296273
 20
12.9461872017
 30
0.0
 10
18.4640552285
 20
12.9256378192
 30
0.0
 10
18.4771840837
 20
12.9026853215
 30
0.0
 10
18.4896550708
 20
12.8774388752
 30
0.0
 10
18.5014089798
 20
12.8500193499
 30
0.0
 10
18.5123892146
 20
12.8205587804
 30
0.0
 10
18.5225424387
 20
12.7891996662
 30
0.0
 10
18.5318190492
 20
12.7560942075
 30
0.0
 10
18.5401735765
 20
12.7214034604
 30
0.0
 10
18.5475648923
 20
12.6852966214
 30
0.0
 10
18.553956941
 20
12.6479496616
 30
0.0
 10
18.5611662828
 20
12.5962987621
 30
0.0
 10
18.5674294532
 20
12.5299484332
 30
0.0
 10
18.5705543839
 20
12.4491050714
 30
0.0
 10
18.5692887252
 20
12.3679241481
 30
0.0
 10
18.5636577508
 20
12.2879891581
 30
0.0
 10
18.555331307
 20
12.2229897718
 30
0.0
 10
18.5465054788
 20
12.172869135
 30
0.0
 10
18.5389651269
 20
12.1369656673
 30
0.0
 10
18.5304678274
 20
12.1025056858
 30
0.0
 10
18.5240634807
 20
12.0801546042
 30
0.0
 10
18.5206975
 20
12.0692622867
 30
0.0
  0
SPLINE
  5
3A7
100
AcDbEntity
  8
0
100
AcDbSpline
 62
7
  6
BYLAYER
 70
0
 71
3
 72
23
 73
19
 74
0
 42
0.0000001
 43
0.0000001
 44
0.0000000001
 40
0.0
 40
0.0
 40
0.0
 40
0.0
 40
0.0426284876
 40
0.0859998538
 40
0.1308108755
 40
0.1776770405
 40
0.2271134191
 40
0.2795291236
 40
0.3352333714
 40
0.3944464194
 40
0.4573105502
 40
0.5239024474
 40
0.594243759
 40
0.6683090293
 40
0.7460310295
 40
0.8273095194
 40
0.9120240976
 40
1.0
 40
1.0
 40
1.0
 40
1.0
 10
18.3427575208
 20
11.8485348411
 30
0.0
 10
18.3470256106
 20
11.8485349215
 30
0.0
 10
18.3556487131
 20
11.8491630427
 30
0.0
 10
18.3684819007
 20
11.8519751388
 30
0.0
 10
18.3812143379
 20
11.8566410026
 30
0.0
 10
18.3937996605
 20
11.8631348003
 30
0.0
 10
18.4062011039
 20
11.8714271654
 30
0.0
 10
18.4183839291
 20
11.8814857124
 30
0.0
 10
18.4303148174
 20
11.8932757065
 30
0.0
 10
18.4419602187
 20
11.9067592321
 30
0.0
 10
18.4532869331
 20
11.9218938321
 30
0.0
 10
18.4642616672
 20
11.9386325806
 30
0.0
 10
18.4748512659
 20
11.9569238463
 30
0.0
 10
18.4850234656
 20
11.9767107695
 30
0.0
 10
18.4947468956
 20
11.997931611
 30
0.0
 10
18.5039914372
 20
12.0205210188
 30
0.0
 10
18.5127274327
 20
12.044407092
 30
0.0
 10
18.5180968411
 20
12.0608465514
 30
0.0
 10
18.5206975
 20
12.0692622867
 30
0.0
  0
SPLINE
  5
3A8
100
AcDbEntity
  8
0
100
AcDbSpline
 62
7
  6
BYLAYER
 70
0
 71
3
 72
16
 73
12
 74
0
 42
0.0000001
 43
0.0000001
 44
0.0000000001
 40
0.0
 40
0.0
 40
0.0
 40
0.0
 40
0.0576277419
 40
0.1151846947
 40
0.2308432379
 40
0.3481703197
 40
0.4683415278
 40
0.5925488015
 40
0.7219264765
 40
0.857472839
 40
1.0
 40
1.0
 40
1.0
 40
1.0
 10
17.6745942938
 20
11.2866277184
 30
0.0
 10
17.6799849991
 20
11.2862214824
 30
0.0
 10
17.6907964372
 20
11.2858250478
 30
0.0
 10
17.7124505481
 20
11.2867129815
 30
0.0
 10
17.7394850932
 20
11.2909957371
 30
0.0
 10
17.7711789725
 20
11.3010182036
 30
0.0
 10
17.8019024271
 20
11.315650931
 30
0.0
 10
17.8314987023
 20
11.3345994576
 30
0.0
 10
17.8599244402
 20
11.3576071343
 30
0.0
 10
17.8871865754
 20
11.3844707024
 30
0.0
 10
17.9041554989
 20
11.4043256068
 30
0.0
 10
17.9124646847
 20
11.4148004564
 30
0.0
  0
SPLINE
  5
3A9
100
AcDbEntity
  8
0
100
AcDbSpline
 62
7
  6
BYLAYER
 70
0
 71
3
 72
13
 73
9
 74
0
 42
0.0000001
 43
0.0000001
 44
0.0000000001
 40
0.0
 40
0.0
 40
0.0
 40
0.0
 40
0.1191450813
 40
0.2389976494
 40
0.3601174271
 40
0.4830201334
 40
0.7356687789
 40
1.0
 40
1.0
 40
1.0
 40
1.0
 10
18.1840357733
 20
13.3035997956
 30
0.0
 10
18.1858385608
 20
13.2997215267
 30
0.0
 10
18.1890596173
 20
13.2917512447
 30
0.0
 10
18.1926712336
 20
13.2793178862
 30
0.0
 10
18.1950524363
 20
13.2664528867
 30
0.0
 10
18.1965847752
 20
13.2486661915
 30
0.0
 10
18.1952822706
 20
13.2255996747
 30
0.0
 10
18.1910345068
 20
13.207437546
 30
0.0
 10
18.1881747708
 20
13.1983903965
 30
0.0
  0
SPLINE
  5
3AA
100
AcDbEntity
  8
0
100
AcDbSpline
 62
7
  6
BYLAYER
 70
0
 71
3
 72
21
 73
17
 74
0
 42
0.0000001
 43
0.0000001
 44
0.0000000001
 40
0.0
 40
0.0
 40
0.0
 40
0.0
 40
0.0563221741
 40
0.112835275
 40
0.169725572
 40
0.2271701512
 40
0.2853329081
 40
0.3443614337
 40
0.4043844884
 40
0.4655100618
 40
0.5278246622
 40
0.5913929554
 40
0.6562576006
 40
0.7224407514
 40
0.8586902522
 40
1.0
 40
1.0
 40
1.0
 40
1.0
 10
17.1611911658
 20
13.7044720054
 30
0.0
 10
17.1644151514
 20
13.697901867
 30
0.0
 10
17.171433879
 20
13.6850057059
 30
0.0
 10
17.1835811982
 20
13.666568949
 30
0.0
 10
17.1973112171
 20
13.6490913002
 30
0.0
 10
17.2125708755
 20
13.6326399679
 30
0.0
 10
17.2293022893
 20
13.6172753043
 30
0.0
 10
17.247442158
 20
13.6030540762
 30
0.0
 10
17.2669223635
 20
13.5900285635
 30
0.0
 10
17.2876697258
 20
13.5782460411
 30
0.0
 10
17.3096068443
 20
13.56774915
 30
0.0
 10
17.3326520537
 20
13.5585761085
 30
0.0
 10
17.3567205656
 20
13.5507596522
 30
0.0
 10
17.3903767355
 20
13.5421018659
 30
0.0
 10
17.4345664772
 20
13.5349093942
 30
0.0
 10
17.470663564
 20
13.5330766478
 30
0.0
 10
17.4890254059
 20
13.5330766478
 30
0.0
  0
SPLINE
  5
3AB
100
AcDbEntity
  8
0
100
AcDbSpline
 62
7
  6
BYLAYER
 70
0
 71
3
 72
14
 73
10
 74
0
 42
0.0000001
 43
0.0000001
 44
0.0000000001
 40
0.0
 40
0.0
 40
0.0
 40
0.0
 40
0.2775297798
 40
0.4086357023
 40
0.5345216098
 40
0.6556373109
 40
0.7727875752
 40
0.8871095959
 40
1.0
 40
1.0
 40
1.0
 40
1.0
 10
17.6504029549
 20
14.0552945875
 30
0.0
 10
17.6625036738
 20
14.0552945875
 30
0.0
 10
17.680431954
 20
14.0534996308
 30
0.0
 10
17.7028554979
 20
14.0469704663
 30
0.0
 10
17.717997003
 20
14.0403155828
 30
0.0
 10
17.7315304964
 20
14.031904276
 30
0.0
 10
17.7432477602
 20
14.0218519691
 30
0.0
 10
17.7529550688
 20
14.0103111239
 30
0.0
 10
17.7579936901
 20
14.001715694
 30
0.0
 10
17.7601116222
 20
13.9972724582
 30
0.0
  0
SPLINE
  5
3AC
100
AcDbEntity
  8
0
100
AcDbSpline
 62
7
  6
BYLAYER
 70
0
 71
3
 72
15
 73
11
 74
0
 42
0.0000001
 43
0.0000001
 44
0.0000000001
 40
0.0
 40
0.0
 40
0.0
 40
0.0
 40
0.1639842599
 40
0.315435485
 40
0.4543864559
 40
0.5813405284
 40
0.6973101785
 40
0.803985338
 40
0.9038199057
 40
1.0
 40
1.0
 40
1.0
 40
1.0
 10
18.3950023926
 20
12.6009361595
 30
0.0
 10
18.3932297539
 20
12.6045484172
 30
0.0
 10
18.3895917943
 20
12.6113891651
 30
0.0
 10
18.3835926959
 20
12.6208025856
 30
0.0
 10
18.3773014318
 20
12.6289052723
 30
0.0
 10
18.3707556082
 20
12.6356419855
 30
0.0
 10
18.3639895464
 20
12.6409640943
 30
0.0
 10
18.3570359866
 20
12.6448240997
 30
0.0
 10
18.3499402196
 20
12.6471719103
 30
0.0
 10
18.3451156965
 20
12.6477014506
 30
0.0
 10
18.342755679
 20
12.6477013714
 30
0.0
  0
SPLINE
  5
3AD
100
AcDbEntity
  8
02___PRT_ALL_AXES
100
AcDbSpline
 62
7
  6
BYLAYER
 70
0
 71
3
 72
18
 73
14
 74
0
 42
0.0000001
 43
0.0000001
 44
0.0000000001
 40
0.0
 40
0.0
 40
0.0
 40
0.0
 40
0.116823999
 40
0.17913916
 40
0.24363308
 40
0.3771855886
 40
0.5133410582
 40
0.6472290108
 40
0.7744314232
 40
0.8346356455
 40
0.8922436785
 40
0.9472848856
 40
1.0
 40
1.0
 40
1.0
 40
1.0
 10
17.9573172452
 20
12.6711879393
 30
0.0
 10
17.9582668948
 20
12.6742610065
 30
0.0
 10
17.9604578222
 20
12.6787669951
 30
0.0
 10
17.9644329137
 20
12.6841793672
 30
0.0
 10
17.9693167644
 20
12.6894472597
 30
0.0
 10
17.9766374057
 20
12.6951375267
 30
0.0
 10
17.9866423716
 20
12.7001312605
 30
0.0
 10
17.9972645093
 20
12.7030246864
 30
0.0
 10
18.0061822528
 20
12.7035113362
 30
0.0
 10
18.0128868181
 20
12.7026300456
 30
0.0
 10
18.0174968448
 20
12.7013856421
 30
0.0
 10
18.0216889398
 20
12.6995674865
 30
0.0
 10
18.0242020007
 20
12.6979599766
 30
0.0
 10
18.0253509748
 20
12.6970732097
 30
0.0
  0
SPLINE
  5
3AE
100
AcDbEntity
  8
02___PRT_ALL_AXES
100
AcDbSpline
 62
7
  6
BYLAYER
 70
0
 71
3
 72
14
 73
10
 74
0
 42
0.0000001
 43
0.0000001
 44
0.0000000001
 40
0.0
 40
0.0
 40
0.0
 40
0.0
 40
0.1128399572
 40
0.2271853011
 40
0.3443969944
 40
0.4655774191
 40
0.5915072796
 40
0.722607523
 40
1.0
 40
1.0
 40
1.0
 40
1.0
 10
17.8562140465
 20
13.733025466
 30
0.0
 10
17.8554072483
 20
13.7346691489
 30
0.0
 10
17.8534981742
 20
13.7378469144
 30
0.0
 10
17.849846615
 20
13.7421089595
 30
0.0
 10
17.8454573339
 20
13.7458193286
 30
0.0
 10
17.8404015057
 20
13.748922904
 30
0.0
 10
17.8347554821
 20
13.7513775574
 30
0.0
 10
17.8264060746
 20
13.7537853817
 30
0.0
 10
17.8197370525
 20
13.7544476256
 30
0.0
 10
17.8152359
 20
13.7544476256
 30
0.0
  0
SPLINE
  5
3AF
100
AcDbEntity
  8
0
100
AcDbSpline
 62
7
  6
BYLAYER
 70
0
 71
3
 72
21
 73
17
 74
0
 42
0.0000001
 43
0.0000001
 44
0.0000000001
 40
0.0
 40
0.0
 40
0.0
 40
0.0
 40
0.0504774
 40
0.1017427182
 40
0.1545424836
 40
0.2094538996
 40
0.2668450814
 40
0.3268683203
 40
0.3894755292
 40
0.4544451778
 40
0.521413766
 40
0.589908147
 40
0.7290522548
 40
0.7986549176
 40
0.8674110208
 40
1.0
 40
1.0
 40
1.0
 40
1.0
 10
17.4608798016
 20
13.8504262951
 30
0.0
 10
17.4584197933
 20
13.8552972194
 30
0.0
 10
17.4543849107
 20
13.8656122715
 30
0.0
 10
17.4512830688
 20
13.8821192425
 30
0.0
 10
17.4511507466
 20
13.8993911703
 30
0.0
 10
17.453972784
 20
13.9170908248
 30
0.0
 10
17.4596763246
 20
13.9348943608
 30
0.0
 10
17.4681426361
 20
13.9524807731
 30
0.0
 10
17.4792084496
 20
13.9695362569
 30
0.0
 10
17.4926666158
 20
13.9857553955
 30
0.0
 10
17.5082723102
 20
14.0008493025
 30
0.0
 10
17.5316649356
 20
14.0191916522
 30
0.0
 10
17.5579498599
 20
14.0340674328
 30
0.0
 10
17.585969841
 20
14.0448993399
 30
0.0
 10
17.6142319795
 20
14.0527078652
 30
0.0
 10
17.6360693679
 20
14.0552945875
 30
0.0
 10
17.6504029549
 20
14.0552945875
 30
0.0
  0
SPLINE
  5
3B0
100
AcDbEntity
  8
0
100
AcDbSpline
 62
7
  6
BYLAYER
 70
0
 71
3
 72
22
 73
18
 74
0
 42
0.0000001
 43
0.0000001
 44
0.0000000001
 40
0.0
 40
0.0
 40
0.0
 40
0.0
 40
0.0522282372
 40
0.1049002929
 40
0.1584326815
 40
0.2131911792
 40
0.2694736877
 40
0.3275002831
 40
0.3874097956
 40
0.4492614499
 40
0.5130399282
 40
0.5786624712
 40
0.6459870241
 40
0.7148207633
 40
0.7849286524
 40
0.8560418552
 40
1.0
 40
1.0
 40
1.0
 40
1.0
 10
18.0589259695
 20
14.1450081998
 30
0.0
 10
18.0640536166
 20
14.1345586023
 30
0.0
 10
18.072950625
 20
14.112849469
 30
0.0
 10
18.0818988355
 20
14.0785921194
 30
0.0
 10
18.0864022014
 20
14.0429032277
 30
0.0
 10
18.0864239672
 20
14.0061349931
 30
0.0
 10
18.0819765242
 20
13.9686349115
 30
0.0
 10
18.0731125237
 20
13.9307548971
 30
0.0
 10
18.0599243132
 20
13.8928460015
 30
0.0
 10
18.042541936
 20
13.8552576376
 30
0.0
 10
18.0211320935
 20
13.8183353256
 30
0.0
 10
17.995897121
 20
13.7824184624
 30
0.0
 10
17.9670731394
 20
13.7478372986
 30
0.0
 10
17.9349301316
 20
13.7149112563
 30
0.0
 10
17.8997628339
 20
13.6839413193
 30
0.0
 10
17.8491000891
 20
13.6455020403
 30
0.0
 10
17.8078588512
 20
13.6206668034
 30
0.0
 10
17.7792959627
 20
13.6060551119
 30
0.0
  0
SPLINE
  5
3B1
100
AcDbEntity
  8
0
100
AcDbSpline
 62
7
  6
BYLAYER
 70
0
 71
3
 72
11
 73
7
 74
0
 42
0.0000001
 43
0.0000001
 44
0.0000000001
 40
0.0
 40
0.0
 40
0.0
 40
0.0
 40
0.2564317545
 40
0.5103695983
 40
0.7590363261
 40
1.0
 40
1.0
 40
1.0
 40
1.0
 10
17.7792959627
 20
13.6060551119
 30
0.0
 10
17.7563233983
 20
13.5943032182
 30
0.0
 10
17.7092548781
 20
13.573445311
 30
0.0
 10
17.6362430274
 20
13.5504760899
 30
0.0
 10
17.5625894207
 20
13.5363825315
 30
0.0
 10
17.5132728842
 20
13.5330766478
 30
0.0
 10
17.4890254059
 20
13.5330766478
 30
0.0
  0
SPLINE
  5
3B2
100
AcDbEntity
  8
02___PRT_ALL_AXES
100
AcDbSpline
 62
7
  6
BYLAYER
 70
0
 71
3
 72
25
 73
21
 74
0
 42
0.0000001
 43
0.0000001
 44
0.0000000001
 40
0.0
 40
0.0
 40
0.0
 40
0.0
 40
0.0673919447
 40
0.1394069959
 40
0.2149436762
 40
0.2927919593
 40
0.3716716065
 40
0.4502731556
 40
0.5272949181
 40
0.6014813783
 40
0.6716631111
 40
0.7368012817
 40
0.796041299
 40
0.8487849157
 40
0.8947985141
 40
0.915375081
 40
0.9344460043
 40
0.9687234751
 40
0.9845685777
 40
1.0
 40
1.0
 40
1.0
 40
1.0
 10
18.1845089018
 20
12.3406065366
 30
0.0
 10
18.1852440267
 20
12.3429854018
 30
0.0
 10
18.1865593795
 20
12.3479711019
 30
0.0
 10
18.1880527899
 20
12.3557758999
 30
0.0
 10
18.1891117549
 20
12.3640409376
 30
0.0
 10
18.1897150693
 20
12.3726053562
 30
0.0
 10
18.1898507118
 20
12.3813030583
 30
0.0
 10
18.1895159784
 20
12.3899648455
 30
0.0
 10
18.1887175448
 20
12.3984223683
 30
0.0
 10
18.1874713427
 20
12.4065114955
 30
0.0
 10
18.1858021306
 20
12.4140759625
 30
0.0
 10
18.1837429369
 20
12.420970526
 30
0.0
 10
18.1813334183
 20
12.4270656836
 30
0.0
 10
18.1786189033
 20
12.4322474565
 30
0.0
 10
18.1760505071
 20
12.4358568877
 30
0.0
 10
18.173863208
 20
12.4381527302
 30
0.0
 10
18.1717759267
 20
12.4399178136
 30
0.0
 10
18.1695187912
 20
12.4412076043
 30
0.0
 10
18.1671730762
 20
12.4418513079
 30
0.0
 10
18.166014899
 20
12.4419570217
 30
0.0
 10
18.1654447701
 20
12.4419571107
 30
0.0
  0
SPLINE
  5
3B3
100
AcDbEntity
  8
02___PRT_ALL_AXES
100
AcDbSpline
 62
7
  6
BYLAYER
 70
0
 71
3
 72
15
 73
11
 74
0
 42
0.0000001
 43
0.0000001
 44
0.0000000001
 40
0.0
 40
0.0
 40
0.0
 40
0.0
 40
0.0858514607
 40
0.1774209735
 40
0.2792207128
 40
0.3941366111
 40
0.523634043
 40
0.6680989617
 40
0.827213888
 40
1.0
 40
1.0
 40
1.0
 40
1.0
 10
18.5200680521
 20
12.4217790923
 30
0.0
 10
18.5209883296
 20
12.4217789485
 30
0.0
 10
18.5228997881
 20
12.4220649477
 30
0.0
 10
18.5256547173
 20
12.4233096544
 30
0.0
 10
18.5283028161
 20
12.4253236477
 30
0.0
 10
18.5308244828
 20
12.4280666588
 30
0.0
 10
18.5332018965
 20
12.4315034152
 30
0.0
 10
18.5354123349
 20
12.4355942635
 30
0.0
 10
18.537430409
 20
12.4402908735
 30
0.0
 10
18.5385873066
 20
12.4436588222
 30
0.0
 10
18.5391341538
 20
12.4454284203
 30
0.0
  0
SPLINE
  5
3B4
100
AcDbEntity
  8
0
100
AcDbSpline
 62
7
  6
BYLAYER
 70
0
 71
3
 72
31
 73
27
 74
0
 42
0.0000001
 43
0.0000001
 44
0.0000000001
 40
0.0
 40
0.0
 40
0.0
 40
0.0
 40
0.0155006459
 40
0.0315033822
 40
0.0484546371
 40
0.0667109892
 40
0.0865313027
 40
0.10808554
 40
0.1314693035
 40
0.1567186535
 40
0.18382257
 40
0.2127323091
 40
0.2433682335
 40
0.2756256102
 40
0.3444718938
 40
0.4180908226
 40
0.4950894771
 40
0.5739485634
 40
0.6530827198
 40
0.7308969124
 40
0.8058425994
 40
0.8764763492
 40
0.909777144
 40
0.9415396081
 40
0.9716486497
 40
1.0
 40
1.0
 40
1.0
 40
1.0
 10
18.3427571433
 20
12.2160348316
 30
0.0
 10
18.3449288132
 20
12.2160349045
 30
0.0
 10
18.3493541871
 20
12.2164808845
 30
0.0
 10
18.3558854928
 20
12.2184641676
 30
0.0
 10
18.3623087898
 20
12.2217338168
 30
0.0
 10
18.3685859084
 20
12.2262534275
 30
0.0
 10
18.3746892748
 20
12.2319872528
 30
0.0
 10
18.3805905564
 20
12.2388986971
 30
0.0
 10
18.3862608274
 20
12.2469472603
 30
0.0
 10
18.3916702007
 20
12.2560868522
 30
0.0
 10
18.39678872
 20
12.2662651248
 30
0.0
 10
18.4015869777
 20
12.2774232958
 30
0.0
 10
18.4060373854
 20
12.2894964076
 30
0.0
 10
18.4115922895
 20
12.3071036132
 30
0.0
 10
18.417416105
 20
12.3309095268
 30
0.0
 10
18.4225291231
 20
12.361251874
 30
0.0
 10
18.4257856142
 20
12.3932584761
 30
0.0
 10
18.427106991
 20
12.4261745858
 30
0.0
 10
18.4264607921
 20
12.4592249709
 30
0.0
 10
18.4238630882
 20
12.4916308478
 30
0.0
 10
18.4193763974
 20
12.5226274685
 30
0.0
 10
18.4140554696
 20
12.5471448905
 30
0.0
 10
18.4088816803
 20
12.5654440592
 30
0.0
 10
18.404685935
 20
12.5781058592
 30
0.0
 10
18.4001241194
 20
12.5898999505
 30
0.0
 10
18.3967522626
 20
12.5973702992
 30
0.0
 10
18.3950023926
 20
12.6009361595
 30
0.0
  0
SPLINE
  5
3B5
100
AcDbEntity
  8
0
100
AcDbSpline
 62
7
  6
BYLAYER
 70
0
 71
3
 72
14
 73
10
 74
0
 42
0.0000001
 43
0.0000001
 44
0.0000000001
 40
0.0
 40
0.0
 40
0.0
 40
0.0
 40
0.1128249672
 40
0.2297070751
 40
0.3505474879
 40
0.475074025
 40
0.6028757116
 40
0.7334249976
 40
1.0
 40
1.0
 40
1.0
 40
1.0
 10
18.1881747708
 20
13.1983903965
 30
0.0
 10
18.1859769298
 20
13.1914372384
 30
0.0
 10
18.1806644377
 20
13.1775340791
 30
0.0
 10
18.1703330548
 20
13.1573267449
 30
0.0
 10
18.1576199043
 20
13.1376207928
 30
0.0
 10
18.1426764222
 20
13.1186468053
 30
0.0
 10
18.1256745555
 20
13.10061955
 30
0.0
 10
18.1003672917
 20
13.077980493
 30
0.0
 10
18.0791611916
 20
13.063263393
 30
0.0
 10
18.0642899147
 20
13.0545625298
 30
0.0
  0
SPLINE
  5
3B6
100
AcDbEntity
  8
0
100
AcDbSpline
 62
7
  6
BYLAYER
 70
0
 71
3
 72
13
 73
9
 74
0
 42
0.0000001
 43
0.0000001
 44
0.0000000001
 40
0.0
 40
0.0
 40
0.0
 40
0.0
 40
0.1246358885
 40
0.2491074307
 40
0.373529124
 40
0.4980411432
 40
0.7479369759
 40
1.0
 40
1.0
 40
1.0
 40
1.0
 10
18.0642899147
 20
13.0545625298
 30
0.0
 10
18.0579581047
 20
13.0673101039
 30
0.0
 10
18.0449476739
 20
13.0926138143
 30
0.0
 10
18.024397154
 20
13.1300002904
 30
0.0
 10
18.0028553678
 20
13.1668081716
 30
0.0
 10
17.9728326274
 20
13.2152275749
 30
0.0
 10
17.9329732651
 20
13.2746680658
 30
0.0
 10
17.8992575535
 20
13.3210416547
 30
0.0
 10
17.8820166103
 20
13.3440931134
 30
0.0
  0
SPLINE
  5
3B7
100
AcDbEntity
  8
02___PRT_ALL_AXES
100
AcDbSpline
 62
7
  6
BYLAYER
 70
0
 71
3
 72
25
 73
21
 74
0
 42
0.0000001
 43
0.0000001
 44
0.0000000001
 40
0.0
 40
0.0
 40
0.0
 40
0.0
 40
0.0155034836
 40
0.0315088859
 40
0.0484627513
 40
0.0667217116
 40
0.1080391413
 40
0.1566409263
 40
0.2126384539
 40
0.2755247381
 40
0.344383399
 40
0.4180159583
 40
0.4950291248
 40
0.5739033578
 40
0.6530528788
 40
0.7308823758
 40
0.8058427414
 40
0.876490919
 40
0.9415505141
 40
1.0
 40
1.0
 40
1.0
 40
1.0
 10
18.3631652083
 20
11.9140413055
 30
0.0
 10
18.3637940756
 20
11.9140412059
 30
0.0
 10
18.3650755772
 20
11.914170244
 30
0.0
 10
18.3669669114
 20
11.9147443293
 30
0.0
 10
18.3688270931
 20
11.9156908703
 30
0.0
 10
18.371354175
 20
11.9175110185
 30
0.0
 10
18.3743588465
 20
11.9207651755
 30
0.0
 10
18.3775309305
 20
11.9257860217
 30
0.0
 10
18.3803666854
 20
11.9319776208
 30
0.0
 10
18.3828031453
 20
11.9392040633
 30
0.0
 10
18.3847855547
 20
11.9473043279
 30
0.0
 10
18.3862661675
 20
11.9560912044
 30
0.0
 10
18.3872093002
 20
11.9653595322
 30
0.0
 10
18.3875919952
 20
11.9748914119
 30
0.0
 10
18.3874049608
 20
11.9844621915
 30
0.0
 10
18.3866527132
 20
11.9938462565
 30
0.0
 10
18.3853536409
 20
12.0028226183
 30
0.0
 10
18.3835389638
 20
12.0111815015
 30
0.0
 10
18.3812530313
 20
12.0187272486
 30
0.0
 10
18.3793398145
 20
12.0233707679
 30
0.0
 10
18.3782953384
 20
12.0254991863
 30
0.0
  0
SPLINE
  5
3B8
100
AcDbEntity
  8
0
100
AcDbSpline
 62
7
  6
BYLAYER
 70
0
 71
3
 72
14
 73
10
 74
0
 42
0.0000001
 43
0.0000001
 44
0.0000000001
 40
0.0
 40
0.0
 40
0.0
 40
0.0
 40
0.2667908787
 40
0.3974020359
 40
0.5252310821
 40
0.6497359722
 40
0.7705189806
 40
0.8873057497
 40
1.0
 40
1.0
 40
1.0
 40
1.0
 10
18.0642379251
 20
13.0534664194
 30
0.0
 10
18.079183358
 20
13.0622360787
 30
0.0
 10
18.1004882342
 20
13.077069113
 30
0.0
 10
18.1258730851
 20
13.0999019708
 30
0.0
 10
18.1429087776
 20
13.1180714679
 30
0.0
 10
18.1578457083
 20
13.1371981936
 30
0.0
 10
18.1705234823
 20
13.1570508715
 30
0.0
 10
18.1807853291
 20
13.1773992177
 30
0.0
 10
18.186020291
 20
13.1913950316
 30
0.0
 10
18.1881747708
 20
13.1983903965
 30
0.0
  0
SPLINE
  5
3B9
100
AcDbEntity
  8
0
100
AcDbSpline
 62
7
  6
BYLAYER
 70
0
 71
3
 72
36
 73
32
 74
0
 42
0.0000001
 43
0.0000001
 44
0.0000000001
 40
0.0
 40
0.0
 40
0.0
 40
0.0
 40
0.0330527536
 40
0.0673881628
 40
0.1028792742
 40
0.1393947529
 40
0.2149134447
 40
0.2927428986
 40
0.3716034902
 40
0.4501858921
 40
0.5271887022
 40
0.5647069007
 40
0.6013655442
 40
0.6370215618
 40
0.6715399829
 40
0.7047955387
 40
0.7366743946
 40
0.7670761434
 40
0.7959161907
 40
0.8231286756
 40
0.8486701587
 40
0.8725243466
 40
0.894708055
 40
0.9152788456
 40
0.9343443748
 40
0.9520727912
 40
0.9687019683
 40
0.9767057006
 40
0.984557061
 40
0.9923047761
 40
1.0
 40
1.0
 40
1.0
 40
1.0
 10
18.1648153222
 20
12.7944739163
 30
0.0
 10
18.1614493415
 20
12.7835815988
 30
0.0
 10
18.1550449948
 20
12.7612305172
 30
0.0
 10
18.1465476953
 20
12.7267705357
 30
0.0
 10
18.1390073434
 20
12.690867068
 30
0.0
 10
18.1301815152
 20
12.6407464312
 30
0.0
 10
18.1218550714
 20
12.5757470449
 30
0.0
 10
18.116224097
 20
12.4958120548
 30
0.0
 10
18.1149584383
 20
12.4146311315
 30
0.0
 10
18.118083369
 20
12.3337877698
 30
0.0
 10
18.1243465394
 20
12.2674374409
 30
0.0
 10
18.1315558812
 20
12.2157865414
 30
0.0
 10
18.1379479299
 20
12.1784395815
 30
0.0
 10
18.1453392457
 20
12.1423327426
 30
0.0
 10
18.153693773
 20
12.1076419954
 30
0.0
 10
18.1629703835
 20
12.0745365367
 30
0.0
 10
18.1731236076
 20
12.0431774226
 30
0.0
 10
18.1841038425
 20
12.0137168531
 30
0.0
 10
18.1958577514
 20
11.9862973277
 30
0.0
 10
18.2083287385
 20
11.9610508815
 30
0.0
 10
18.2214575937
 20
11.9380983838
 30
0.0
 10
18.2351831949
 20
11.9175490012
 30
0.0
 10
18.2494438282
 20
11.8995000912
 30
0.0
 10
18.2641777736
 20
11.8840379061
 30
0.0
 10
18.2793262115
 20
11.8712390894
 30
0.0
 10
18.2948258986
 20
11.8611750162
 30
0.0
 10
18.3081604816
 20
11.855046007
 30
0.0
 10
18.3188510331
 20
11.8516535129
 30
0.0
 10
18.3268018413
 20
11.8498553638
 30
0.0
 10
18.3347736153
 20
11.848775091
 30
0.0
 10
18.3401032869
 20
11.8485347911
 30
0.0
 10
18.3427575208
 20
11.8485348411
 30
0.0
  0
SPLINE
  5
3BA
100
AcDbEntity
  8
0
100
AcDbSpline
 62
7
  6
BYLAYER
 70
0
 71
3
 72
16
 73
12
 74
0
 42
0.0000001
 43
0.0000001
 44
0.0000000001
 40
0.0
 40
0.0
 40
0.0
 40
0.0
 40
0.1563853539
 40
0.3016173533
 40
0.4362701555
 40
0.4999376766
 40
0.5613515466
 40
0.6781282215
 40
0.7885391057
 40
0.8949307977
 40
1.0
 40
1.0
 40
1.0
 40
1.0
 10
17.8874683709
 20
12.7528336657
 30
0.0
 10
17.8902651234
 20
12.7569427714
 30
0.0
 10
17.8959481079
 20
12.7646784854
 30
0.0
 10
17.9051024043
 20
12.775118056
 30
0.0
 10
17.9131056476
 20
12.7825820142
 30
0.0
 10
17.9196252622
 20
12.7876544533
 30
0.0
 10
17.925981351
 20
12.7919852107
 30
0.0
 10
17.9340684534
 20
12.7963855455
 30
0.0
 10
17.944093561
 20
12.7999779828
 30
0.0
 10
17.9542193552
 20
12.8017572239
 30
0.0
 10
17.9609830184
 20
12.8017179161
 30
0.0
 10
17.9643075679
 20
12.8014019335
 30
0.0
  0
SPLINE
  5
3BB
100
AcDbEntity
  8
02___PRT_ALL_AXES
100
AcDbSpline
 62
7
  6
BYLAYER
 70
0
 71
3
 72
15
 73
11
 74
0
 42
0.0000001
 43
0.0000001
 44
0.0000000001
 40
0.0
 40
0.0
 40
0.0
 40
0.0
 40
0.0858514607
 40
0.1774209735
 40
0.2792207128
 40
0.3941366111
 40
0.523634043
 40
0.6680989617
 40
0.827213888
 40
1.0
 40
1.0
 40
1.0
 40
1.0
 10
18.1654428002
 20
12.3169572085
 30
0.0
 10
18.1663630776
 20
12.3169570648
 30
0.0
 10
18.1682745361
 20
12.317243064
 30
0.0
 10
18.1710294654
 20
12.3184877706
 30
0.0
 10
18.1736775641
 20
12.320501764
 30
0.0
 10
18.1761992309
 20
12.3232447751
 30
0.0
 10
18.1785766445
 20
12.3266815315
 30
0.0
 10
18.1807870829
 20
12.3307723798
 30
0.0
 10
18.1828051571
 20
12.3354689898
 30
0.0
 10
18.1839620546
 20
12.3388369385
 30
0.0
 10
18.1845089018
 20
12.3406065366
 30
0.0
  0
SPLINE
  5
3BC
100
AcDbEntity
  8
0
100
AcDbSpline
 62
7
  6
BYLAYER
 70
0
 71
3
 72
19
 73
15
 74
0
 42
0.0000001
 43
0.0000001
 44
0.0000000001
 40
0.0
 40
0.0
 40
0.0
 40
0.0
 40
0.0487248936
 40
0.1005760668
 40
0.1553687023
 40
0.2128782782
 40
0.2728439856
 40
0.3349767095
 40
0.3989632588
 40
0.4644711453
 40
0.5986309736
 40
0.7345762783
 40
0.8693398627
 40
1.0
 40
1.0
 40
1.0
 40
1.0
 10
17.8694680312
 20
12.1422040381
 30
0.0
 10
17.8663449622
 20
12.1485681835
 30
0.0
 10
17.8603380032
 20
12.1619234607
 30
0.0
 10
17.8522483904
 20
12.1830421126
 30
0.0
 10
17.8448412741
 20
12.2057575345
 30
0.0
 10
17.8381646198
 20
12.2299238409
 30
0.0
 10
17.8322613364
 20
12.2553872822
 30
0.0
 10
17.8271696561
 20
12.2819846417
 30
0.0
 10
17.8229223028
 20
12.3095457165
 30
0.0
 10
17.8183870698
 20
12.3476428201
 30
0.0
 10
17.8150290329
 20
12.3963933832
 30
0.0
 10
17.814656421
 20
12.4553351022
 30
0.0
 10
17.817920416
 20
12.5136768924
 30
0.0
 10
17.8225680562
 20
12.5520488496
 30
0.0
 10
17.8255331827
 20
12.5708263414
 30
0.0
  0
SPLINE
  5
3BD
100
AcDbEntity
  8
0
100
AcDbSpline
 62
7
  6
BYLAYER
 70
0
 71
3
 72
23
 73
19
 74
0
 42
0.0000001
 43
0.0000001
 44
0.0000000001
 40
0.0
 40
0.0
 40
0.0
 40
0.0
 40
0.0879759024
 40
0.1726904806
 40
0.2539689705
 40
0.3316909707
 40
0.405756241
 40
0.4760975526
 40
0.5426894498
 40
0.6055535806
 40
0.6647666286
 40
0.7204708764
 40
0.7728865809
 40
0.8223229595
 40
0.8691891245
 40
0.9140001462
 40
0.9573715124
 40
1.0
 40
1.0
 40
1.0
 40
1.0
 10
18.1648153222
 20
12.7944739163
 30
0.0
 10
18.1674159811
 20
12.8028896516
 30
0.0
 10
18.1727853895
 20
12.819329111
 30
0.0
 10
18.181521385
 20
12.8432151841
 30
0.0
 10
18.1907659267
 20
12.865804592
 30
0.0
 10
18.2004893566
 20
12.8870254334
 30
0.0
 10
18.2106615563
 20
12.9068123567
 30
0.0
 10
18.221251155
 20
12.9251036224
 30
0.0
 10
18.2322258891
 20
12.9418423709
 30
0.0
 10
18.2435526035
 20
12.9569769709
 30
0.0
 10
18.2551980048
 20
12.9704604965
 30
0.0
 10
18.2671288932
 20
12.9822504906
 30
0.0
 10
18.2793117183
 20
12.9923090376
 30
0.0
 10
18.2917131618
 20
13.0006014026
 30
0.0
 10
18.3042984843
 20
13.0070952003
 30
0.0
 10
18.3170309215
 20
13.0117610641
 30
0.0
 10
18.3298641091
 20
13.0145731603
 30
0.0
 10
18.3384872116
 20
13.0152012815
 30
0.0
 10
18.3427553014
 20
13.0152013619
 30
0.0
  0
SPLINE
  5
3BE
100
AcDbEntity
  8
02___PRT_ALL_AXES
100
AcDbSpline
 62
7
  6
BYLAYER
 70
0
 71
3
 72
25
 73
21
 74
0
 42
0.0000001
 43
0.0000001
 44
0.0000000001
 40
0.0
 40
0.0
 40
0.0
 40
0.0
 40
0.0155034836
 40
0.0315088859
 40
0.0484627513
 40
0.0667217116
 40
0.1080391413
 40
0.1566409263
 40
0.2126384539
 40
0.2755247381
 40
0.344383399
 40
0.4180159583
 40
0.4950291248
 40
0.5739033578
 40
0.6530528788
 40
0.7308823758
 40
0.8058427414
 40
0.876490919
 40
0.9415505141
 40
1.0
 40
1.0
 40
1.0
 40
1.0
 10
18.3223456441
 20
12.8246949996
 30
0.0
 10
18.3229745114
 20
12.8246949
 30
0.0
 10
18.324256013
 20
12.824823938
 30
0.0
 10
18.3261473472
 20
12.8253980234
 30
0.0
 10
18.328007529
 20
12.8263445643
 30
0.0
 10
18.3305346108
 20
12.8281647125
 30
0.0
 10
18.3335392823
 20
12.8314188696
 30
0.0
 10
18.3367113663
 20
12.8364397158
 30
0.0
 10
18.3395471212
 20
12.8426313148
 30
0.0
 10
18.3419835811
 20
12.8498577573
 30
0.0
 10
18.3439659905
 20
12.857958022
 30
0.0
 10
18.3454466033
 20
12.8667448984
 30
0.0
 10
18.346389736
 20
12.8760132263
 30
0.0
 10
18.3467724311
 20
12.885545106
 30
0.0
 10
18.3465853967
 20
12.8951158855
 30
0.0
 10
18.345833149
 20
12.9044999505
 30
0.0
 10
18.3445340767
 20
12.9134763123
 30
0.0
 10
18.3427193996
 20
12.9218351955
 30
0.0
 10
18.3404334671
 20
12.9293809426
 30
0.0
 10
18.3385202503
 20
12.934024462
 30
0.0
 10
18.3374757742
 20
12.9361528804
 30
0.0
  0
SPLINE
  5
3BF
100
AcDbEntity
  8
02___PRT_ALL_AXES
100
AcDbSpline
 62
7
  6
BYLAYER
 70
0
 71
3
 72
22
 73
18
 74
0
 42
0.0000001
 43
0.0000001
 44
0.0000000001
 40
0.0
 40
0.0
 40
0.0
 40
0.0
 40
0.0506985541
 40
0.1025340257
 40
0.1564630599
 40
0.2131411442
 40
0.2728790378
 40
0.335658398
 40
0.4011788449
 40
0.4689164618
 40
0.5381838982
 40
0.6081888152
 40
0.7468182992
 40
0.8140725454
 40
0.8789651184
 40
0.941018313
 40
1.0
 40
1.0
 40
1.0
 40
1.0
 10
17.9917210456
 20
14.1715262825
 30
0.0
 10
17.9906659106
 20
14.173675892
 30
0.0
 10
17.9880382848
 20
14.1777990172
 30
0.0
 10
17.9827783285
 20
14.1830641152
 30
0.0
 10
17.9763322881
 20
14.1873148197
 30
0.0
 10
17.9688785143
 20
14.1904510427
 30
0.0
 10
17.9606082834
 20
14.1924083991
 30
0.0
 10
17.9517276661
 20
14.1931477276
 30
0.0
 10
17.9424549576
 20
14.1926568622
 30
0.0
 10
17.9330186976
 20
14.1909516278
 30
0.0
 10
17.923648893
 20
14.1880747776
 30
0.0
 10
17.9116085506
 20
14.1827978934
 30
0.0
 10
17.9006076477
 20
14.1755511909
 30
0.0
 10
17.8913504448
 20
14.1666889965
 30
0.0
 10
17.8855709919
 20
14.1595291825
 30
0.0
 10
17.8810389511
 20
14.1519738109
 30
0.0
 10
17.8788699547
 20
14.1466521565
 30
0.0
 10
17.8780474442
 20
14.1439905114
 30
0.0
  0
LINE
  5
3C0
100
AcDbEntity
  8
0
100
AcDbLine
 62
7
  6
BYLAYER
 10
18.0060638852
 20
12.5600213668
 11
17.8255331827
 21
12.5708263414
  0
SPLINE
  5
3C1
100
AcDbEntity
  8
02___PRT_ALL_AXES
100
AcDbSpline
 62
7
  6
BYLAYER
 70
0
 71
3
 72
14
 73
10
 74
0
 42
0.0000001
 43
0.0000001
 44
0.0000000001
 40
0.0
 40
0.0
 40
0.0
 40
0.0
 40
0.1128399572
 40
0.2271853011
 40
0.3443969944
 40
0.4655774191
 40
0.5915072796
 40
0.722607523
 40
1.0
 40
1.0
 40
1.0
 40
1.0
 10
17.4761176722
 20
14.1715262837
 30
0.0
 10
17.475310874
 20
14.1731699666
 30
0.0
 10
17.4734017999
 20
14.1763477321
 30
0.0
 10
17.4697502407
 20
14.1806097771
 30
0.0
 10
17.4653609596
 20
14.1843201463
 30
0.0
 10
17.4603051314
 20
14.1874237217
 30
0.0
 10
17.4546591078
 20
14.1898783751
 30
0.0
 10
17.4463097003
 20
14.1922861994
 30
0.0
 10
17.4396406782
 20
14.1929484433
 30
0.0
 10
17.4351395257
 20
14.1929484433
 30
0.0
  0
SPLINE
  5
3C2
100
AcDbEntity
  8
02___PRT_ALL_AXES
100
AcDbSpline
 62
7
  6
BYLAYER
 70
0
 71
3
 72
11
 73
7
 74
0
 42
0.0000001
 43
0.0000001
 44
0.0000000001
 40
0.0
 40
0.0
 40
0.0
 40
0.0
 40
0.2644280716
 40
0.5170829352
 40
0.7609159252
 40
1.0
 40
1.0
 40
1.0
 40
1.0
 10
17.8780474442
 20
14.1439905114
 30
0.0
 10
17.8773132814
 20
14.1416147598
 30
0.0
 10
17.8762379181
 20
14.1368452835
 30
0.0
 10
17.875914702
 20
14.1296572205
 30
0.0
 10
17.8769369286
 20
14.1227716893
 30
0.0
 10
17.8785158092
 20
14.1184729914
 30
0.0
 10
17.879506467
 20
14.1164547403
 30
0.0
  0
SPLINE
  5
3C3
100
AcDbEntity
  8
0
100
AcDbSpline
 62
7
  6
BYLAYER
 70
0
 71
3
 72
11
 73
7
 74
0
 42
0.0000001
 43
0.0000001
 44
0.0000000001
 40
0.0
 40
0.0
 40
0.0
 40
0.0
 40
0.2463632301
 40
0.4951042165
 40
0.7463297386
 40
1.0
 40
1.0
 40
1.0
 40
1.0
 10
17.8608011862
 20
12.7527844924
 30
0.0
 10
17.8575165719
 20
12.7391385551
 30
0.0
 10
17.8504994402
 20
12.7118129505
 30
0.0
 10
17.8386016801
 20
12.6709843503
 30
0.0
 10
17.8252551064
 20
12.6301681166
 30
0.0
 10
17.8154729043
 20
12.6031127405
 30
0.0
 10
17.8103707021
 20
12.5895913862
 30
0.0
  0
LINE
  5
3C4
100
AcDbEntity
  8
0
100
AcDbLine
 62
7
  6
BYLAYER
 10
17.8103707021
 20
12.5895913862
 11
17.8255331827
 21
12.5708263414
  0
SPLINE
  5
3C5
100
AcDbEntity
  8
0
100
AcDbSpline
 62
7
  6
BYLAYER
 70
0
 71
3
 72
84
 73
80
 74
0
 42
0.0000001
 43
0.0000001
 44
0.0000000001
 40
0.0
 40
0.0
 40
0.0
 40
0.0
 40
0.0243325201
 40
0.0501447183
 40
0.0773691048
 40
0.1059202869
 40
0.1356971973
 40
0.1665869561
 40
0.1984669939
 40
0.2312074473
 40
0.264673234
 40
0.2987260299
 40
0.3332257966
 40
0.368032124
 40
0.4030062207
 40
0.4380124172
 40
0.4729194272
 40
0.5076041384
 40
0.5419534456
 40
0.5589706857
 40
0.5758677377
 40
0.5926349953
 40
0.6092646409
 40
0.6257511188
 40
0.6420918071
 40
0.6582882432
 40
0.6663345101
 40
0.6743483537
 40
0.6823324165
 40
0.6902904546
 40
0.6982277901
 40
0.7061520456
 40
0.7140743751
 40
0.71803981
 40
0.7220117964
 40
0.7259941179
 40
0.7299917648
 40
0.7340115055
 40
0.7380628265
 40
0.742159559
 40
0.7463225002
 40
0.7484381748
 40
0.7505821347
 40
0.7527553038
 40
0.7549404992
 40
0.756015465
 40
0.7570459104
 40
0.7579934158
 40
0.7588279443
 40
0.7595533573
 40
0.7602024421
 40
0.7608099914
 40
0.7614004908
 40
0.7625779819
 40
0.7637852404
 40
0.7650301836
 40
0.7663111057
 40
0.7676243255
 40
0.7689661912
 40
0.7717232369
 40
0.7745631203
 40
0.7774721427
 40
0.7834609385
 40
0.7896393023
 40
0.7959766422
 40
0.8024529724
 40
0.8090542325
 40
0.8157698949
 40
0.8225917501
 40
0.8295132058
 40
0.8365287904
 40
0.8436338373
 40
0.8580961795
 40
0.8728728514
 40
0.8879405045
 40
0.9032785708
 40
0.9346907898
 40
0.9669735204
 40
1.0
 40
1.0
 40
1.0
 40
1.0
 10
17.6895977305
 20
11.8269826452
 30
0.0
 10
17.6838149827
 20
11.8376165981
 30
0.0
 10
17.6726384381
 20
11.8599392699
 30
0.0
 10
17.6574134313
 20
11.895307375
 30
0.0
 10
17.643291785
 20
11.933375962
 30
0.0
 10
17.6303393507
 20
11.9739307007
 30
0.0
 10
17.6186132955
 20
12.0167487668
 30
0.0
 10
17.6081630847
 20
12.0615965513
 30
0.0
 10
17.5990296994
 20
12.1082329974
 30
0.0
 10
17.591245451
 20
12.1564111677
 30
0.0
 10
17.5848337761
 20
12.2058805322
 30
0.0
 10
17.5798090652
 20
12.2563889739
 30
0.0
 10
17.5761764832
 20
12.3076846797
 30
0.0
 10
17.5739318791
 20
12.3595182025
 30
0.0
 10
17.5730614894
 20
12.4116446519
 30
0.0
 10
17.5735415793
 20
12.4638259604
 30
0.0
 10
17.5753377938
 20
12.5158342976
 30
0.0
 10
17.5784042244
 20
12.5674554728
 30
0.0
 10
17.5819798311
 20
12.6101178916
 30
0.0
 10
17.5854165163
 20
12.6439029626
 30
0.0
 10
17.5882579669
 20
12.6689552428
 30
0.0
 10
17.5913575772
 20
12.6937825186
 30
0.0
 10
17.5946991557
 20
12.7183722408
 30
0.0
 10
17.5982631691
 20
12.742716202
 30
0.0
 10
17.6020258796
 20
12.7668120722
 30
0.0
 10
17.6053091869
 20
12.786732352
 30
0.0
 10
17.6079993172
 20
12.8025517891
 30
0.0
 10
17.6100373785
 20
12.8143380398
 30
0.0
 10
17.6120920768
 20
12.8260768368
 30
0.0
 10
17.6141530676
 20
12.8377758815
 30
0.0
 10
17.6162070083
 20
12.8494459606
 30
0.0
 10
17.618235829
 20
12.8611024092
 30
0.0
 10
17.6198840375
 20
12.8708194857
 30
0.0
 10
17.6211567816
 20
12.8786058589
 30
0.0
 10
17.6220821697
 20
12.8844629039
 30
0.0
 10
17.6229691019
 20
12.8903421266
 30
0.0
 10
17.6238053926
 20
12.8962528116
 30
0.0
 10
17.6245738216
 20
12.9022073843
 30
0.0
 10
17.6252490677
 20
12.9082230835
 30
0.0
 10
17.6257899704
 20
12.9143240494
 30
0.0
 10
17.6260692906
 20
12.9194798789
 30
0.0
 10
17.6261192275
 20
12.9236701818
 30
0.0
 10
17.6260332537
 20
12.9268703975
 30
0.0
 10
17.6257672943
 20
12.9300958022
 30
0.0
 10
17.62531777
 20
12.9327681293
 30
0.0
 10
17.6247295624
 20
12.9348227088
 30
0.0
 10
17.6241599916
 20
12.9362346098
 30
0.0
 10
17.6234533658
 20
12.9374497462
 30
0.0
 10
17.6226242241
 20
12.938394886
 30
0.0
 10
17.6217175678
 20
12.939035372
 30
0.0
 10
17.6207884623
 20
12.9393928295
 30
0.0
 10
17.6198722657
 20
12.9395229348
 30
0.0
 10
17.6186864891
 20
12.9394706272
 30
0.0
 10
17.61724249
 20
12.9390809905
 30
0.0
 10
17.6156080493
 20
12.9383019147
 30
0.0
 10
17.6140360675
 20
12.9373069654
 30
0.0
 10
17.6125134178
 20
12.9361515935
 30
0.0
 10
17.6110306674
 20
12.9348712326
 30
0.0
 10
17.6090816778
 20
12.9330125898
 30
0.0
 10
17.6067276215
 20
12.9304840839
 30
0.0
 10
17.6040167736
 20
12.9272332804
 30
0.0
 10
17.6004664199
 20
12.9225958921
 30
0.0
 10
17.5962049404
 20
12.9164191074
 30
0.0
 10
17.5913275206
 20
12.9086096252
 30
0.0
 10
17.5866098188
 20
12.90042199
 30
0.0
 10
17.5820325341
 20
12.891915994
 30
0.0
 10
17.5775823007
 20
12.8831316042
 30
0.0
 10
17.5732491156
 20
12.8740980738
 30
0.0
 10
17.5690255234
 20
12.8648375542
 30
0.0
 10
17.5649059483
 20
12.8553674627
 30
0.0
 10
17.5608860511
 20
12.845701927
 30
0.0
 10
17.5556237917
 20
12.8324919929
 30
0.0
 10
17.549290105
 20
12.8155552294
 30
0.0
 10
17.5420912328
 20
12.794720826
 30
0.0
 10
17.5352406299
 20
12.7733115714
 30
0.0
 10
17.5264940709
 20
12.7438273831
 30
0.0
 10
17.5164472309
 20
12.7058057551
 30
0.0
 10
17.5058158051
 20
12.6588707049
 30
0.0
 10
17.4996767543
 20
12.626960373
 30
0.0
 10
17.4968170346
 20
12.6107816314
 30
0.0
  0
SPLINE
  5
3C6
100
AcDbEntity
  8
0
100
AcDbSpline
 62
7
  6
BYLAYER
 70
0
 71
3
 72
34
 73
30
 74
0
 42
0.0000001
 43
0.0000001
 44
0.0000000001
 40
0.0
 40
0.0
 40
0.0
 40
0.0
 40
0.1445744203
 40
0.2855639185
 40
0.3544072172
 40
0.421981955
 40
0.488161016
 40
0.5528131615
 40
0.6158006502
 40
0.6769747356
 40
0.7068310142
 40
0.7361702195
 40
0.7649671026
 40
0.7931932452
 40
0.8208159295
 40
0.8477965548
 40
0.8740886054
 40
0.8996360769
 40
0.9121133558
 40
0.9243842731
 40
0.9364491133
 40
0.9483247153
 40
0.9600759995
 40
0.9659679493
 40
0.9719395541
 40
0.9781008366
 40
0.9846459094
 40
0.9918633274
 40
1.0
 40
1.0
 40
1.0
 40
1.0
 10
17.4968170346
 20
12.6107816314
 30
0.0
 10
17.496695401
 20
12.6356402484
 30
0.0
 10
17.4969945801
 20
12.6847451966
 30
0.0
 10
17.4986224846
 20
12.7456661132
 30
0.0
 10
17.5005647267
 20
12.7933260337
 30
0.0
 10
17.5022788118
 20
12.828119886
 30
0.0
 10
17.5042128993
 20
12.8621802794
 30
0.0
 10
17.5063053686
 20
12.8954409203
 30
0.0
 10
17.508476788
 20
12.9278339113
 30
0.0
 10
17.5102774867
 20
12.9542553002
 30
0.0
 10
17.5116292314
 20
12.9749081342
 30
0.0
 10
17.5125649366
 20
12.9900091082
 30
0.0
 10
17.5134003607
 20
13.0048352937
 30
0.0
 10
17.5140962263
 20
13.0193733523
 30
0.0
 10
17.5146004975
 20
13.0336070447
 30
0.0
 10
17.5148420739
 20
13.0475157366
 30
0.0
 10
17.5147169566
 20
13.0610697234
 30
0.0
 10
17.5141734943
 20
13.0721210697
 30
0.0
 10
17.5133273098
 20
13.0807296306
 30
0.0
 10
17.5124399173
 20
13.0869993533
 30
0.0
 10
17.5112181222
 20
13.093109612
 30
0.0
 10
17.5095434429
 20
13.0990212966
 30
0.0
 10
17.5076026765
 20
13.1037334156
 30
0.0
 10
17.5055639341
 20
13.1072526784
 30
0.0
 10
17.5037056103
 20
13.1097440501
 30
0.0
 10
17.5014136749
 20
13.1120151285
 30
0.0
 10
17.4985443536
 20
13.1139342995
 30
0.0
 10
17.4949806043
 20
13.1152602104
 30
0.0
 10
17.4923251049
 20
13.1155429778
 30
0.0
 10
17.490926041
 20
13.1155429778
 30
0.0
  0
SPLINE
  5
3C7
100
AcDbEntity
  8
02___PRT_ALL_AXES
100
AcDbSpline
 62
7
  6
BYLAYER
 70
0
 71
3
 72
15
 73
11
 74
0
 42
0.0000001
 43
0.0000001
 44
0.0000000001
 40
0.0
 40
0.0
 40
0.0
 40
0.0
 40
0.1639528902
 40
0.3154364244
 40
0.454388828
 40
0.5813336036
 40
0.6973084096
 40
0.8039849003
 40
0.9038205145
 40
1.0
 40
1.0
 40
1.0
 40
1.0
 10
18.3782953384
 20
12.0254991863
 30
0.0
 10
18.3777821535
 20
12.0265449472
 30
0.0
 10
18.3767286379
 20
12.0285256896
 30
0.0
 10
18.3749917362
 20
12.0312515618
 30
0.0
 10
18.3731699854
 20
12.0335979566
 30
0.0
 10
18.3712745335
 20
12.0355485353
 30
0.0
 10
18.3693155517
 20
12.0370898152
 30
0.0
 10
18.3673020605
 20
12.038207556
 30
0.0
 10
18.3652475176
 20
12.0388877394
 30
0.0
 10
18.3638505376
 20
12.0390410952
 30
0.0
 10
18.3631671782
 20
12.0390412034
 30
0.0
  0
SPLINE
  5
3C8
100
AcDbEntity
  8
02___PRT_ALL_AXES
100
AcDbSpline
 62
7
  6
BYLAYER
 70
0
 71
3
 72
25
 73
21
 74
0
 42
0.0000001
 43
0.0000001
 44
0.0000000001
 40
0.0
 40
0.0
 40
0.0
 40
0.0
 40
0.0673919447
 40
0.1394069959
 40
0.2149436762
 40
0.2927919593
 40
0.3716716065
 40
0.4502731556
 40
0.5272949181
 40
0.6014813783
 40
0.6716631111
 40
0.7368012817
 40
0.796041299
 40
0.8487849157
 40
0.8947985141
 40
0.915375081
 40
0.9344460043
 40
0.9687234751
 40
0.9845685777
 40
1.0
 40
1.0
 40
1.0
 40
1.0
 10
18.5391341538
 20
12.4454284203
 30
0.0
 10
18.5398692787
 20
12.4478072855
 30
0.0
 10
18.5411846314
 20
12.4527929856
 30
0.0
 10
18.5426780418
 20
12.4605977836
 30
0.0
 10
18.5437370068
 20
12.4688628213
 30
0.0
 10
18.5443403213
 20
12.4774272399
 30
0.0
 10
18.5444759638
 20
12.486124942
 30
0.0
 10
18.5441412304
 20
12.4947867292
 30
0.0
 10
18.5433427968
 20
12.5032442521
 30
0.0
 10
18.5420965947
 20
12.5113333792
 30
0.0
 10
18.5404273825
 20
12.5188978462
 30
0.0
 10
18.5383681889
 20
12.5257924097
 30
0.0
 10
18.5359586702
 20
12.5318875673
 30
0.0
 10
18.5332441553
 20
12.5370693402
 30
0.0
 10
18.530675759
 20
12.5406787714
 30
0.0
 10
18.5284884599
 20
12.542974614
 30
0.0
 10
18.5264011787
 20
12.5447396973
 30
0.0
 10
18.5241440431
 20
12.546029488
 30
0.0
 10
18.5217983282
 20
12.5466731917
 30
0.0
 10
18.520640151
 20
12.5467789054
 30
0.0
 10
18.520070022
 20
12.5467789944
 30
0.0
  0
SPLINE
  5
3C9
100
AcDbEntity
  8
0
100
AcDbSpline
 62
7
  6
BYLAYER
 70
0
 71
3
 72
11
 73
7
 74
0
 42
0.0000001
 43
0.0000001
 44
0.0000000001
 40
0.0
 40
0.0
 40
0.0
 40
0.0
 40
0.2305074943
 40
0.4743624102
 40
0.7310556412
 40
1.0
 40
1.0
 40
1.0
 40
1.0
 10
18.0642379251
 20
13.0534664194
 30
0.0
 10
18.0688952535
 20
13.0448656458
 30
0.0
 10
18.0779818527
 20
13.0268934495
 30
0.0
 10
18.0906234273
 20
12.9985553073
 30
0.0
 10
18.102619864
 20
12.9681783857
 30
0.0
 10
18.109992065
 20
12.9471219277
 30
0.0
 10
18.1135729665
 20
12.9362865759
 30
0.0
  0
SPLINE
  5
3CA
100
AcDbEntity
  8
0
100
AcDbSpline
 62
7
  6
BYLAYER
 70
0
 71
3
 72
36
 73
32
 74
0
 42
0.0000001
 43
0.0000001
 44
0.0000000001
 40
0.0
 40
0.0
 40
0.0
 40
0.0
 40
0.0897242854
 40
0.1321972637
 40
0.1730210422
 40
0.2121689862
 40
0.2496263081
 40
0.2853910252
 40
0.3194764722
 40
0.3519127728
 40
0.3827492595
 40
0.4120576666
 40
0.4399342945
 40
0.4918634356
 40
0.5163107751
 40
0.5400053099
 40
0.5631888336
 40
0.5861226232
 40
0.609077561
 40
0.6323226098
 40
0.6561135697
 40
0.6806840001
 40
0.7329001519
 40
0.7609164825
 40
0.7903483609
 40
0.8212824752
 40
0.8537817463
 40
0.8878868763
 40
0.923622095
 40
0.9609977218
 40
1.0
 40
1.0
 40
1.0
 40
1.0
 10
18.1100704332
 20
11.9326966984
 30
0.0
 10
18.1040129483
 20
11.9147729276
 30
0.0
 10
18.094336613
 20
11.8886039975
 30
0.0
 10
18.0799409219
 20
11.8550737817
 30
0.0
 10
18.0688956126
 20
11.8317292036
 30
0.0
 10
18.0574288624
 20
11.8097748563
 30
0.0
 10
18.0455651635
 20
11.7892547383
 30
0.0
 10
18.0333294794
 20
11.7702101433
 30
0.0
 10
18.0207476013
 20
11.752678766
 30
0.0
 10
18.0078450077
 20
11.7366948607
 30
0.0
 10
17.9946485489
 20
11.7222904956
 30
0.0
 10
17.9811806815
 20
11.709491411
 30
0.0
 10
17.9633321032
 20
11.6949517842
 30
0.0
 10
17.944578303
 20
11.6831949665
 30
0.0
 10
17.9251614115
 20
11.6748469687
 30
0.0
 10
17.9107546873
 20
11.670419355
 30
0.0
 10
17.8962507542
 20
11.6677160018
 30
0.0
 10
17.8816841162
 20
11.6667438729
 30
0.0
 10
17.8670920719
 20
11.667504059
 30
0.0
 10
17.8525117336
 20
11.6699913417
 30
0.0
 10
17.8379770616
 20
11.674194495
 30
0.0
 10
17.8183116482
 20
11.6822230975
 30
0.0
 10
17.7992136103
 20
11.6936280022
 30
0.0
 10
17.7809194348
 20
11.7077919205
 30
0.0
 10
17.7670582915
 20
11.7202766691
 30
0.0
 10
17.7534142574
 20
11.7343404535
 30
0.0
 10
17.7400095777
 20
11.7499550064
 30
0.0
 10
17.7268702726
 20
11.767086001
 30
0.0
 10
17.7140211255
 20
11.7856982689
 30
0.0
 10
17.7014878384
 20
11.8057516923
 30
0.0
 10
17.6935266952
 20
11.8197576327
 30
0.0
 10
17.6895977305
 20
11.8269826452
 30
0.0
  0
SPLINE
  5
3CB
100
AcDbEntity
  8
0
100
AcDbSpline
 62
7
  6
BYLAYER
 70
0
 71
3
 72
17
 73
13
 74
0
 42
0.0000001
 43
0.0000001
 44
0.0000000001
 40
0.0
 40
0.0
 40
0.0
 40
0.0
 40
0.0484798912
 40
0.097046402
 40
0.1462235031
 40
0.1965114425
 40
0.3020863448
 40
0.416944598
 40
0.5431974207
 40
0.6821287929
 40
0.8343619716
 40
1.0
 40
1.0
 40
1.0
 40
1.0
 10
17.9643075678
 20
12.0623342785
 30
0.0
 10
17.9621925465
 20
12.0621332675
 30
0.0
 10
17.957931959
 20
12.0619694003
 30
0.0
 10
17.9515292759
 20
12.0624550269
 30
0.0
 10
17.9451430378
 20
12.0636707077
 30
0.0
 10
17.9365349398
 20
12.0663001879
 30
0.0
 10
17.9257961326
 20
12.0715317526
 30
0.0
 10
17.913472408
 20
12.0805234776
 30
0.0
 10
17.9015568353
 20
12.0922299735
 30
0.0
 10
17.8901208219
 20
12.1065534905
 30
0.0
 10
17.8792347917
 20
12.1233853158
 30
0.0
 10
17.8726658492
 20
12.13568757
 30
0.0
 10
17.8694680312
 20
12.1422040381
 30
0.0
  0
SPLINE
  5
3CC
100
AcDbEntity
  8
0
100
AcDbSpline
 62
7
  6
BYLAYER
 70
0
 71
3
 72
31
 73
27
 74
0
 42
0.0000001
 43
0.0000001
 44
0.0000000001
 40
0.0
 40
0.0
 40
0.0
 40
0.0
 40
0.0249891378
 40
0.0511574534
 40
0.0784594293
 40
0.106843753
 40
0.1362495395
 40
0.1666096938
 40
0.1978510062
 40
0.2298950207
 40
0.2960500773
 40
0.3643734684
 40
0.4341128446
 40
0.5044876982
 40
0.5747050938
 40
0.6439751619
 40
0.7115266507
 40
0.7766229144
 40
0.8080369188
 40
0.8385856234
 40
0.8681946521
 40
0.896795466
 40
0.9243263033
 40
0.9507324063
 40
0.9759694216
 40
1.0
 40
1.0
 40
1.0
 40
1.0
 10
17.4775967398
 20
11.6192466917
 30
0.0
 10
17.4719571631
 20
11.6307389408
 30
0.0
 10
17.4609736911
 20
11.6545446421
 30
0.0
 10
17.4456943462
 20
11.6917314396
 30
0.0
 10
17.4312730305
 20
11.7311165691
 30
0.0
 10
17.4177577378
 20
11.7725684138
 30
0.0
 10
17.405193236
 20
11.8159509772
 30
0.0
 10
17.3936213611
 20
11.8611204256
 30
0.0
 10
17.3830803376
 20
11.9079275627
 30
0.0
 10
17.3703127486
 20
11.9730036556
 30
0.0
 10
17.3572454402
 20
12.057344159
 30
0.0
 10
17.3462886083
 20
12.1614234811
 30
0.0
 10
17.3400416581
 20
12.2680564189
 30
0.0
 10
17.3385883388
 20
12.3758311962
 30
0.0
 10
17.341948482
 20
12.4833230714
 30
0.0
 10
17.3500765807
 20
12.5891113107
 30
0.0
 10
17.3628635935
 20
12.6917956283
 30
0.0
 10
17.3774257098
 20
12.7746134969
 30
0.0
 10
17.3913540433
 20
12.8382032475
 30
0.0
 10
17.4027158337
 20
12.8837242469
 30
0.0
 10
17.4150781816
 20
12.9274884812
 30
0.0
 10
17.4284003101
 20
12.9693515266
 30
0.0
 10
17.442637916
 20
13.0091747289
 30
0.0
 10
17.45774398
 20
13.0468276916
 30
0.0
 10
17.4736682868
 20
13.082184617
 30
0.0
 10
17.4850794138
 20
13.1047095852
 30
0.0
 10
17.490926041
 20
13.1155429778
 30
0.0
  0
SPLINE
  5
3CD
100
AcDbEntity
  8
02___PRT_ALL_AXES
100
AcDbSpline
 62
7
  6
BYLAYER
 70
0
 71
3
 72
22
 73
18
 74
0
 42
0.0000001
 43
0.0000001
 44
0.0000000001
 40
0.0
 40
0.0
 40
0.0
 40
0.0
 40
0.0506985541
 40
0.1025340257
 40
0.1564630599
 40
0.2131411442
 40
0.2728790378
 40
0.335658398
 40
0.4011788449
 40
0.4689164618
 40
0.5381838982
 40
0.6081888152
 40
0.7468182992
 40
0.8140725454
 40
0.8789651184
 40
0.941018313
 40
1.0
 40
1.0
 40
1.0
 40
1.0
 10
17.3406106683
 20
13.7330254648
 30
0.0
 10
17.3395555332
 20
13.7351750744
 30
0.0
 10
17.3369279074
 20
13.7392981995
 30
0.0
 10
17.3316679512
 20
13.7445632975
 30
0.0
 10
17.3252219107
 20
13.748814002
 30
0.0
 10
17.3177681369
 20
13.751950225
 30
0.0
 10
17.3094979061
 20
13.7539075814
 30
0.0
 10
17.3006172887
 20
13.75464691
 30
0.0
 10
17.2913445803
 20
13.7541560446
 30
0.0
 10
17.2819083203
 20
13.7524508101
 30
0.0
 10
17.2725385157
 20
13.7495739599
 30
0.0
 10
17.2604981732
 20
13.7442970757
 30
0.0
 10
17.2494972704
 20
13.7370503733
 30
0.0
 10
17.2402400675
 20
13.7281881788
 30
0.0
 10
17.2344606146
 20
13.7210283648
 30
0.0
 10
17.2299285738
 20
13.7134729932
 30
0.0
 10
17.2277595774
 20
13.7081513388
 30
0.0
 10
17.2269370668
 20
13.7054896937
 30
0.0
  0
SPLINE
  5
3CE
100
AcDbEntity
  8
02___PRT_ALL_AXES
100
AcDbSpline
 62
7
  6
BYLAYER
 70
0
 71
3
 72
20
 73
16
 74
0
 42
0.0000001
 43
0.0000001
 44
0.0000000001
 40
0.0
 40
0.0
 40
0.0
 40
0.0
 40
0.132508604
 40
0.2012170556
 40
0.2707764574
 40
0.4098642846
 40
0.4783536746
 40
0.5453374364
 40
0.6727897416
 40
0.732886274
 40
0.7903601646
 40
0.8453533826
 40
0.8982209315
 40
0.9495254798
 40
1.0
 40
1.0
 40
1.0
 40
1.0
 10
17.8152359
 20
13.7544476256
 30
0.0
 10
17.8098815352
 20
13.7544476256
 30
0.0
 10
17.8017244768
 20
13.7534851404
 30
0.0
 10
17.7911646517
 20
13.7505784017
 30
0.0
 10
17.7806916054
 20
13.7465453789
 30
0.0
 10
17.7708616754
 20
13.7410061168
 30
0.0
 10
17.7621010681
 20
13.7341714658
 30
0.0
 10
17.7544329055
 20
13.7268000412
 30
0.0
 10
17.7481782487
 20
13.718493937
 30
0.0
 10
17.7438262205
 20
13.709573323
 30
0.0
 10
17.7416494954
 20
13.7029227814
 30
0.0
 10
17.7405439451
 20
13.6963063458
 30
0.0
 10
17.7405368827
 20
13.6898430244
 30
0.0
 10
17.7416351129
 20
13.6836580349
 30
0.0
 10
17.7431007749
 20
13.679784811
 30
0.0
 10
17.7439994631
 20
13.6779539215
 30
0.0
  0
SPLINE
  5
3CF
100
AcDbEntity
  8
02___PRT_ALL_AXES
100
AcDbSpline
 62
7
  6
BYLAYER
 70
0
 71
3
 72
11
 73
7
 74
0
 42
0.0000001
 43
0.0000001
 44
0.0000000001
 40
0.0
 40
0.0
 40
0.0
 40
0.0
 40
0.2513311011
 40
0.5081703316
 40
0.7606940674
 40
1.0
 40
1.0
 40
1.0
 40
1.0
 10
18.0187561747
 20
12.6609357435
 30
0.0
 10
18.0151769708
 20
12.6604867935
 30
0.0
 10
18.0080260841
 20
12.6587460477
 30
0.0
 10
17.9981017361
 20
12.654025664
 30
0.0
 10
17.989470611
 20
12.647501775
 30
0.0
 10
17.9848493944
 20
12.642062047
 30
0.0
 10
17.982986654
 20
12.6391763798
 30
0.0
  0
SPLINE
  5
3D0
100
AcDbEntity
  8
02___PRT_ALL_AXES
100
AcDbSpline
 62
7
  6
BYLAYER
 70
0
 71
3
 72
11
 73
7
 74
0
 42
0.0000001
 43
0.0000001
 44
0.0000000001
 40
0.0
 40
0.0
 40
0.0
 40
0.0
 40
0.2644280716
 40
0.5170829352
 40
0.7609159252
 40
1.0
 40
1.0
 40
1.0
 40
1.0
 10
17.2269370668
 20
13.7054896937
 30
0.0
 10
17.226202904
 20
13.7031139421
 30
0.0
 10
17.2251275407
 20
13.6983444659
 30
0.0
 10
17.2248043246
 20
13.6911564029
 30
0.0
 10
17.2258265512
 20
13.6842708717
 30
0.0
 10
17.2274054319
 20
13.6799721737
 30
0.0
 10
17.2283960897
 20
13.6779539226
 30
0.0
  0
SPLINE
  5
3D1
100
AcDbEntity
  8
02___PRT_ALL_AXES
100
AcDbSpline
 62
7
  6
BYLAYER
 70
0
 71
3
 72
15
 73
11
 74
0
 42
0.0000001
 43
0.0000001
 44
0.0000000001
 40
0.0
 40
0.0
 40
0.0
 40
0.0
 40
0.1639528902
 40
0.3154364244
 40
0.454388828
 40
0.5813336036
 40
0.6973084096
 40
0.8039849003
 40
0.9038205145
 40
1.0
 40
1.0
 40
1.0
 40
1.0
 10
18.3374757742
 20
12.9361528804
 30
0.0
 10
18.3369625893
 20
12.9371986412
 30
0.0
 10
18.3359090737
 20
12.9391793836
 30
0.0
 10
18.334172172
 20
12.9419052559
 30
0.0
 10
18.3323504212
 20
12.9442516507
 30
0.0
 10
18.3304549693
 20
12.9462022293
 30
0.0
 10
18.3284959875
 20
12.9477435092
 30
0.0
 10
18.3264824963
 20
12.94886125
 30
0.0
 10
18.3244279534
 20
12.9495414335
 30
0.0
 10
18.3230309734
 20
12.9496947892
 30
0.0
 10
18.322347614
 20
12.9496948975
 30
0.0
  0
SPLINE
  5
3D2
100
AcDbEntity
  8
02___PRT_ALL_AXES
100
AcDbSpline
 62
7
  6
BYLAYER
 70
0
 71
3
 72
20
 73
16
 74
0
 42
0.0000001
 43
0.0000001
 44
0.0000000001
 40
0.0
 40
0.0
 40
0.0
 40
0.0
 40
0.132508604
 40
0.2012170556
 40
0.2707764574
 40
0.4098642846
 40
0.4783536746
 40
0.5453374364
 40
0.6727897416
 40
0.732886274
 40
0.7903601646
 40
0.8453533826
 40
0.8982209315
 40
0.9495254798
 40
1.0
 40
1.0
 40
1.0
 40
1.0
 10
17.4351395257
 20
14.1929484433
 30
0.0
 10
17.4297851609
 20
14.1929484433
 30
0.0
 10
17.4216281025
 20
14.191985958
 30
0.0
 10
17.4110682774
 20
14.1890792194
 30
0.0
 10
17.4005952311
 20
14.1850461965
 30
0.0
 10
17.3907653011
 20
14.1795069345
 30
0.0
 10
17.3820046937
 20
14.1726722834
 30
0.0
 10
17.3743365312
 20
14.1653008588
 30
0.0
 10
17.3680818744
 20
14.1569947547
 30
0.0
 10
17.3637298461
 20
14.1480741407
 30
0.0
 10
17.3615531211
 20
14.1414235991
 30
0.0
 10
17.3604475707
 20
14.1348071635
 30
0.0
 10
17.3604405084
 20
14.1283438421
 30
0.0
 10
17.3615387386
 20
14.1221588526
 30
0.0
 10
17.3630044006
 20
14.1182856287
 30
0.0
 10
17.3639030888
 20
14.1164547391
 30
0.0
  0
SPLINE
  5
3D3
100
AcDbEntity
  8
0
100
AcDbSpline
 62
7
  6
BYLAYER
 70
0
 71
3
 72
23
 73
19
 74
0
 42
0.0000001
 43
0.0000001
 44
0.0000000001
 40
0.0
 40
0.0
 40
0.0
 40
0.0
 40
0.0464455286
 40
0.0934222415
 40
0.1414438021
 40
0.1909824172
 40
0.242454959
 40
0.2962188676
 40
0.352570263
 40
0.4117466085
 40
0.4739309879
 40
0.5392580339
 40
0.607819929
 40
0.679671443
 40
0.7548335254
 40
0.8332994683
 40
0.9150435919
 40
1.0
 40
1.0
 40
1.0
 40
1.0
 10
17.7287232187
 20
13.3485346574
 30
0.0
 10
17.723293812
 20
13.3485349056
 30
0.0
 10
17.7123622938
 20
13.3478925597
 30
0.0
 10
17.6960463367
 20
13.3450083927
 30
0.0
 10
17.6798093978
 20
13.3402127921
 30
0.0
 10
17.6636907508
 20
13.3335219362
 30
0.0
 10
17.6477235855
 20
13.3249550661
 30
0.0
 10
17.6319397353
 20
13.3145350357
 30
0.0
 10
17.6163692908
 20
13.3022868156
 30
0.0
 10
17.6010419469
 20
13.2882375705
 30
0.0
 10
17.5859867759
 20
13.2724174929
 30
0.0
 10
17.5712327587
 20
13.2548595854
 30
0.0
 10
17.5568088529
 20
13.2355998577
 30
0.0
 10
17.542743584
 20
13.214677876
 30
0.0
 10
17.5290650959
 20
13.1921366069
 30
0.0
 10
17.5158008335
 20
13.1680215396
 30
0.0
 10
17.5029784865
 20
13.1423831132
 30
0.0
 10
17.4948952368
 20
13.1246465775
 30
0.0
 10
17.490926041
 20
13.1155429778
 30
0.0
  0
SPLINE
  5
3D4
100
AcDbEntity
  8
0
100
AcDbSpline
 62
7
  6
BYLAYER
 70
0
 71
3
 72
31
 73
27
 74
0
 42
0.0000001
 43
0.0000001
 44
0.0000000001
 40
0.0
 40
0.0
 40
0.0
 40
0.0
 40
0.0176429442
 40
0.0354665153
 40
0.053644295
 40
0.0723374636
 40
0.091690954
 40
0.1118307116
 40
0.1328632487
 40
0.1548758336
 40
0.1779379385
 40
0.2021028394
 40
0.2274090791
 40
0.2538825706
 40
0.2815377438
 40
0.310379084
 40
0.3404024669
 40
0.3715957804
 40
0.4374027328
 40
0.5075892753
 40
0.5818556208
 40
0.6598378389
 40
0.7411194028
 40
0.8252411358
 40
0.9117077111
 40
1.0
 40
1.0
 40
1.0
 40
1.0
 10
17.846918576
 20
13.3485347733
 30
0.0
 10
17.8418020446
 20
13.3485347615
 30
0.0
 10
17.8315077321
 20
13.3479642936
 30
0.0
 10
17.8161335289
 20
13.3454039918
 30
0.0
 10
17.8008240319
 20
13.3411460096
 30
0.0
 10
17.7856126429
 20
13.3352022209
 30
0.0
 10
17.7705274712
 20
13.327588065
 30
0.0
 10
17.7555955107
 20
13.3183216585
 30
0.0
 10
17.7408427647
 20
13.3074225553
 30
0.0
 10
17.726294238
 20
13.2949129007
 30
0.0
 10
17.7119747166
 20
13.2808166815
 30
0.0
 10
17.6979089559
 20
13.265160113
 30
0.0
 10
17.6841211302
 20
13.2479722075
 30
0.0
 10
17.6706356962
 20
13.2292841956
 30
0.0
 10
17.657476485
 20
13.2091301914
 30
0.0
 10
17.6446670678
 20
13.1875469481
 30
0.0
 10
17.6322304768
 20
13.1645736019
 30
0.0
 10
17.6158839783
 20
13.1315540702
 30
0.0
 10
17.5966248314
 20
13.0870189463
 30
0.0
 10
17.5757388683
 20
13.029699991
 30
0.0
 10
17.5568341697
 20
12.9679973203
 30
0.0
 10
17.5400499791
 20
12.9023620819
 30
0.0
 10
17.5255100339
 20
12.8332725946
 30
0.0
 10
17.5133220672
 20
12.7612347144
 30
0.0
 10
17.5035762636
 20
12.6867773717
 30
0.0
 10
17.4987954119
 20
12.6363102395
 30
0.0
 10
17.4968170346
 20
12.6107816314
 30
0.0
  0
SPLINE
  5
3D5
100
AcDbEntity
  8
0
100
AcDbSpline
 62
7
  6
BYLAYER
 70
0
 71
3
 72
23
 73
19
 74
0
 42
0.0000001
 43
0.0000001
 44
0.0000000001
 40
0.0
 40
0.0
 40
0.0
 40
0.0
 40
0.0478954861
 40
0.0962580433
 40
0.1455380452
 40
0.1961550916
 40
0.248487616
 40
0.3028670838
 40
0.3595752654
 40
0.418845549
 40
0.4808657302
 40
0.5457812517
 40
0.6137004956
 40
0.684698429
 40
0.7588188168
 40
0.8360814092
 40
0.9164873105
 40
1.0
 40
1.0
 40
1.0
 40
1.0
 10
17.7508049891
 20
11.3746880514
 30
0.0
 10
17.7446556389
 20
11.3746884414
 30
0.0
 10
17.7322868672
 20
11.3753583753
 30
0.0
 10
17.7138105536
 20
11.3783619001
 30
0.0
 10
17.6954080396
 20
11.3833573977
 30
0.0
 10
17.6771174399
 20
11.3903312247
 30
0.0
 10
17.6589708955
 20
11.3992660876
 30
0.0
 10
17.6409999269
 20
11.4101423355
 30
0.0
 10
17.6232341375
 20
11.4229373834
 30
0.0
 10
17.6057025414
 20
11.4376266713
 30
0.0
 10
17.5884338515
 20
11.4541833352
 30
0.0
 10
17.5714561378
 20
11.4725775675
 30
0.0
 10
17.5547976246
 20
11.4927772045
 30
0.0
 10
17.5384863169
 20
11.5147469914
 30
0.0
 10
17.5225495499
 20
11.5384485052
 30
0.0
 10
17.5070143783
 20
11.5638413666
 30
0.0
 10
17.4919082395
 20
11.5908804148
 30
0.0
 10
17.4823203617
 20
11.6096209623
 30
0.0
 10
17.4775967398
 20
11.6192466917
 30
0.0
  0
SPLINE
  5
3D6
100
AcDbEntity
  8
02___PRT_ALL_AXES
100
AcDbSpline
 62
7
  6
BYLAYER
 70
0
 71
3
 72
11
 73
7
 74
0
 42
0.0000001
 43
0.0000001
 44
0.0000000001
 40
0.0
 40
0.0
 40
0.0
 40
0.0
 40
0.2393009088
 40
0.482830382
 40
0.7352667238
 40
1.0
 40
1.0
 40
1.0
 40
1.0
 10
17.9587147591
 20
12.6522890512
 30
0.0
 10
17.9579695723
 20
12.6536493233
 30
0.0
 10
17.9567641766
 20
12.6565692393
 30
0.0
 10
17.9559322084
 20
12.6612964232
 30
0.0
 10
17.9560823453
 20
12.6662555865
 30
0.0
 10
17.9568106444
 20
12.6695485785
 30
0.0
 10
17.9573172452
 20
12.6711879393
 30
0.0
  0
SPLINE
  5
3D7
100
AcDbEntity
  8
03___PRT_ALL_CURVES
100
AcDbSpline
 62
7
  6
BYLAYER
 70
0
 71
3
 72
111
 73
107
 74
0
 42
0.0000001
 43
0.0000001
 44
0.0000000001
 40
0.0
 40
0.0
 40
0.0
 40
0.0
 40
0.0625
 40
0.09375
 40
0.109375
 40
0.125
 40
0.140625
 40
0.1484375
 40
0.15625
 40
0.16015625
 40
0.1640625
 40
0.166015625
 40
0.1669921875
 40
0.16796875
 40
0.169921875
 40
0.171875
 40
0.1796875
 40
0.1875
 40
0.1953125
 40
0.203125
 40
0.21875
 40
0.25
 40
0.28125
 40
0.296875
 40
0.3046875
 40
0.3125
 40
0.3203125
 40
0.32421875
 40
0.328125
 40
0.330078125
 40
0.33203125
 40
0.3330078125
 40
0.333984375
 40
0.3359375
 40
0.33984375
 40
0.34375
 40
0.3515625
 40
0.359375
 40
0.375
 40
0.390625
 40
0.40625
 40
0.421875
 40
0.4375
 40
0.453125
 40
0.46875
 40
0.4765625
 40
0.484375
 40
0.48828125
 40
0.4921875
 40
0.49609375
 40
0.498046875
 40
0.4990234375
 40
0.5
 40
0.5009765625
 40
0.501953125
 40
0.50390625
 40
0.5078125
 40
0.51171875
 40
0.515625
 40
0.5234375
 40
0.53125
 40
0.546875
 40
0.5625
 40
0.578125
 40
0.59375
 40
0.609375
 40
0.625
 40
0.640625
 40
0.6484375
 40
0.65625
 40
0.66015625
 40
0.6640625
 40
0.666015625
 40
0.6669921875
 40
0.66796875
 40
0.669921875
 40
0.671875
 40
0.67578125
 40
0.6796875
 40
0.6875
 40
0.6953125
 40
0.703125
 40
0.71875
 40
0.75
 40
0.78125
 40
0.796875
 40
0.8046875
 40
0.8125
 40
0.8203125
 40
0.82421875
 40
0.828125
 40
0.830078125
 40
0.83203125
 40
0.8330078125
 40
0.833984375
 40
0.8359375
 40
0.83984375
 40
0.84375
 40
0.8515625
 40
0.859375
 40
0.875
 40
0.890625
 40
0.90625
 40
0.9375
 40
0.96875
 40
1.0
 40
1.0
 40
1.0
 40
1.0
 10
17.4775967398
 20
11.6192466917
 30
0.0
 10
17.4824445264
 20
11.6104214286
 30
0.0
 10
17.4897162085
 20
11.5971835393
 30
0.0
 10
17.4981998297
 20
11.5817393166
 30
0.0
 10
17.5030476247
 20
11.5729140729
 30
0.0
 10
17.5066834388
 20
11.5662950664
 30
0.0
 10
17.5097133862
 20
11.5607794621
 30
0.0
 10
17.5121371146
 20
11.5563664529
 30
0.0
 10
17.5136524674
 20
11.5536095194
 30
0.0
 10
17.514863553
 20
11.5514012306
 30
0.0
 10
17.5156232119
 20
11.5500273065
 30
0.0
 10
17.516149501
 20
11.5490530209
 30
0.0
 10
17.5164587993
 20
11.5485159044
 30
0.0
 10
17.5168003453
 20
11.5480526795
 30
0.0
 10
17.5172162555
 20
11.5474483919
 30
0.0
 10
17.5182235117
 20
11.5460188888
 30
0.0
 10
17.5197305858
 20
11.5438659034
 30
0.0
 10
17.5217421957
 20
11.5410002463
 30
0.0
 10
17.523753223
 20
11.5381332544
 30
0.0
 10
17.526434796
 20
11.534311064
 30
0.0
 10
17.5311274541
 20
11.5276220145
 30
0.0
 10
17.5378313002
 20
11.5180663387
 30
0.0
 10
17.5445351313
 20
11.508510638
 30
0.0
 10
17.5492278104
 20
11.5018216234
 30
0.0
 10
17.5519093504
 20
11.4979993781
 30
0.0
 10
17.5539204791
 20
11.4951325549
 30
0.0
 10
17.5555965034
 20
11.4927439794
 30
0.0
 10
17.5569371351
 20
11.4908321233
 30
0.0
 10
17.5577754573
 20
11.4896394805
 30
0.0
 10
17.5584451362
 20
11.4886801738
 30
0.0
 10
17.5588659191
 20
11.4880924545
 30
0.0
 10
17.5591974295
 20
11.4875951436
 30
0.0
 10
17.5595476169
 20
11.4871968968
 30
0.0
 10
17.5601691213
 20
11.4865459845
 30
0.0
 10
17.5610524579
 20
11.4855920991
 30
0.0
 10
17.5624683262
 20
11.4840793007
 30
0.0
 10
17.5642372954
 20
11.4821837083
 30
0.0
 10
17.5670681302
 20
11.4791533283
 30
0.0
 10
17.5706065076
 20
11.4753644721
 30
0.0
 10
17.5748526317
 20
11.4708182225
 30
0.0
 10
17.5790987366
 20
11.4662718715
 30
0.0
 10
17.5833448469
 20
11.4617255485
 30
0.0
 10
17.5875909552
 20
11.4571792148
 30
0.0
 10
17.5918370657
 20
11.4526328959
 30
0.0
 10
17.5953754856
 20
11.4488442564
 30
0.0
 10
17.5982062338
 20
11.4458134344
 30
0.0
 10
17.5999754234
 20
11.4439189668
 30
0.0
 10
17.6013908392
 20
11.4424038595
 30
0.0
 10
17.6024522255
 20
11.441266251
 30
0.0
 10
17.6033372726
 20
11.4403223096
 30
0.0
 10
17.6039557094
 20
11.4396535719
 30
0.0
 10
17.6043108135
 20
11.4392838941
 30
0.0
 10
17.6045723198
 20
11.4389715411
 30
0.0
 10
17.6048522575
 20
11.4387933379
 30
0.0
 10
17.6052190786
 20
11.4385089407
 30
0.0
 10
17.6058640111
 20
11.4380330472
 30
0.0
 10
17.6067837771
 20
11.4373418012
 30
0.0
 10
17.6078881666
 20
11.4365171848
 30
0.0
 10
17.6093604519
 20
11.4354159922
 30
0.0
 10
17.6112008886
 20
11.4340400849
 30
0.0
 10
17.6141455426
 20
11.4318383071
 30
0.0
 10
17.6178263755
 20
11.4290861969
 30
0.0
 10
17.6222433683
 20
11.4257836161
 30
0.0
 10
17.626660363
 20
11.4224810503
 30
0.0
 10
17.6310773566
 20
11.4191784732
 30
0.0
 10
17.6354943529
 20
11.4158759263
 30
0.0
 10
17.6399113393
 20
11.4125732696
 30
0.0
 10
17.6435921921
 20
11.4098213966
 30
0.0
 10
17.6465368055
 20
11.4076191351
 30
0.0
 10
17.6483773454
 20
11.4062444588
 30
0.0
 10
17.6498494188
 20
11.4051407393
 30
0.0
 10
17.6507702829
 20
11.4044599922
 30
0.0
 10
17.6514132478
 20
11.4039652767
 30
0.0
 10
17.6517832223
 20
11.4037110461
 30
0.0
 10
17.652162863
 20
11.4035640437
 30
0.0
 10
17.6526341041
 20
11.403343576
 30
0.0
 10
17.6533899395
 20
11.4030113456
 30
0.0
 10
17.6543341005
 20
11.4025890323
 30
0.0
 10
17.6558451121
 20
11.4019172573
 30
0.0
 10
17.6577337551
 20
11.4010761916
 30
0.0
 10
17.6600001786
 20
11.4000674892
 30
0.0
 10
17.6630220586
 20
11.3987223516
 30
0.0
 10
17.6683103571
 20
11.396368455
 30
0.0
 10
17.675865064
 20
11.3930056917
 30
0.0
 10
17.6834197753
 20
11.3896429646
 30
0.0
 10
17.6887080675
 20
11.3872890173
 30
0.0
 10
17.6917299573
 20
11.3859439594
 30
0.0
 10
17.6939963508
 20
11.3849350123
 30
0.0
 10
17.6958850879
 20
11.3840947126
 30
0.0
 10
17.6973959073
 20
11.3834213747
 30
0.0
 10
17.6983405574
 20
11.383003039
 30
0.0
 10
17.6990953888
 20
11.3826626439
 30
0.0
 10
17.6995691862
 20
11.382462963
 30
0.0
 10
17.6999435798
 20
11.3822732914
 30
0.0
 10
17.7003349282
 20
11.3821928747
 30
0.0
 10
17.7010276641
 20
11.3821028989
 30
0.0
 10
17.7020131774
 20
11.3819478815
 30
0.0
 10
17.7035922953
 20
11.3817146521
 30
0.0
 10
17.7055654063
 20
11.3814180485
 30
0.0
 10
17.7087228233
 20
11.3809463145
 30
0.0
 10
17.7126694438
 20
11.3803556755
 30
0.0
 10
17.717405453
 20
11.3796473245
 30
0.0
 10
17.7237201094
 20
11.3787027113
 30
0.0
 10
17.7316134376
 20
11.3775219947
 30
0.0
 10
17.7410854281
 20
11.3761051132
 30
0.0
 10
17.7474000891
 20
11.3751605296
 30
0.0
 10
17.7505574195
 20
11.3746882373
 30
0.0
  0
LINE
  5
3D8
100
AcDbEntity
  8
03___PRT_ALL_CURVES
100
AcDbLine
 62
7
  6
BYLAYER
 10
17.4686700622
 20
11.6380347832
 11
17.4775967396
 21
11.6192466921
  0
SPLINE
  5
3D9
100
AcDbEntity
  8
03___PRT_ALL_CURVES
100
AcDbSpline
 62
7
  6
BYLAYER
 70
0
 71
3
 72
91
 73
87
 74
0
 42
0.0000001
 43
0.0000001
 44
0.0000000001
 40
0.0
 40
0.0
 40
0.0
 40
0.0
 40
0.0625
 40
0.09375
 40
0.109375
 40
0.125
 40
0.140625
 40
0.1484375
 40
0.15625
 40
0.16015625
 40
0.1640625
 40
0.166015625
 40
0.16796875
 40
0.171875
 40
0.1796875
 40
0.1875
 40
0.203125
 40
0.21875
 40
0.25
 40
0.28125
 40
0.296875
 40
0.3125
 40
0.3203125
 40
0.328125
 40
0.33203125
 40
0.333984375
 40
0.3359375
 40
0.33984375
 40
0.34375
 40
0.3515625
 40
0.359375
 40
0.375
 40
0.390625
 40
0.40625
 40
0.421875
 40
0.4375
 40
0.453125
 40
0.46875
 40
0.4765625
 40
0.484375
 40
0.4921875
 40
0.49609375
 40
0.498046875
 40
0.5
 40
0.501953125
 40
0.50390625
 40
0.5078125
 40
0.515625
 40
0.5234375
 40
0.53125
 40
0.546875
 40
0.5625
 40
0.578125
 40
0.59375
 40
0.609375
 40
0.625
 40
0.640625
 40
0.6484375
 40
0.65625
 40
0.66015625
 40
0.6640625
 40
0.666015625
 40
0.66796875
 40
0.671875
 40
0.6796875
 40
0.6875
 40
0.703125
 40
0.71875
 40
0.75
 40
0.78125
 40
0.796875
 40
0.8125
 40
0.8203125
 40
0.828125
 40
0.83203125
 40
0.833984375
 40
0.8359375
 40
0.83984375
 40
0.84375
 40
0.8515625
 40
0.859375
 40
0.875
 40
0.890625
 40
0.90625
 40
0.9375
 40
1.0
 40
1.0
 40
1.0
 40
1.0
 10
17.7058764873
 20
14.2348070043
 30
0.0
 10
17.6985997881
 20
14.2343298245
 30
0.0
 10
17.6876847377
 20
14.233614043
 30
0.0
 10
17.6749505174
 20
14.2327790061
 30
0.0
 10
17.6676738128
 20
14.2323017829
 30
0.0
 10
17.6622163047
 20
14.2319440315
 30
0.0
 10
17.6576683164
 20
14.2316453766
 30
0.0
 10
17.6540300714
 20
14.2314076386
 30
0.0
 10
17.6517558366
 20
14.2312563519
 30
0.0
 10
17.6499372083
 20
14.2311415071
 30
0.0
 10
17.6487988328
 20
14.231055618
 30
0.0
 10
17.6478921011
 20
14.2310192272
 30
0.0
 10
17.6469708811
 20
14.2308648436
 30
0.0
 10
17.6453520155
 20
14.2305398597
 30
0.0
 10
17.6430428621
 20
14.2301041956
 30
0.0
 10
17.6393462543
 20
14.2293911504
 30
0.0
 10
17.6347261662
 20
14.2285053187
 30
0.0
 10
17.6273336508
 20
14.2270849148
 30
0.0
 10
17.6180931285
 20
14.2253105589
 30
0.0
 10
17.6088525861
 20
14.2235354488
 30
0.0
 10
17.6014601029
 20
14.2221162516
 30
0.0
 10
17.5968399342
 20
14.2212274033
 30
0.0
 10
17.5931434917
 20
14.2205205421
 30
0.0
 10
17.5908339174
 20
14.2200691353
 30
0.0
 10
17.5892158078
 20
14.219772427
 30
0.0
 10
17.5882933762
 20
14.2195727195
 30
0.0
 10
17.5873792417
 20
14.2192593956
 30
0.0
 10
17.5862337328
 20
14.2189066427
 30
0.0
 10
17.584402506
 20
14.2183204978
 30
0.0
 10
17.582112929
 20
14.2175952606
 30
0.0
 10
17.5784499096
 20
14.2164307205
 30
0.0
 10
17.5738710311
 20
14.2149764733
 30
0.0
 10
17.5683764216
 20
14.2132307641
 30
0.0
 10
17.5628817998
 20
14.2114852203
 30
0.0
 10
17.5573871826
 20
14.2097396276
 30
0.0
 10
17.5518925593
 20
14.2079940651
 30
0.0
 10
17.5463979561
 20
14.2062484305
 30
0.0
 10
17.5418190579
 20
14.2047939501
 30
0.0
 10
17.5381560786
 20
14.2036298858
 30
0.0
 10
17.5354084638
 20
14.2027581484
 30
0.0
 10
17.5331199944
 20
14.2020275311
 30
0.0
 10
17.5315156921
 20
14.2015242814
 30
0.0
 10
17.5306026542
 20
14.201223934
 30
0.0
 10
17.5299074352
 20
14.201034664
 30
0.0
 10
17.5292521255
 20
14.2007078196
 30
0.0
 10
17.5283644585
 20
14.2003200146
 30
0.0
 10
17.5268175272
 20
14.1996189976
 30
0.0
 10
17.5246042343
 20
14.1986292339
 30
0.0
 10
17.5219497343
 20
14.197436514
 30
0.0
 10
17.5184098939
 20
14.1958479687
 30
0.0
 10
17.5139852676
 20
14.1938616871
 30
0.0
 10
17.508675641
 20
14.1914784071
 30
0.0
 10
17.5033660358
 20
14.1890950554
 30
0.0
 10
17.4980564198
 20
14.1867117323
 30
0.0
 10
17.4927468256
 20
14.1843283668
 30
0.0
 10
17.487437155
 20
14.1819451422
 30
0.0
 10
17.4830126661
 20
14.1799586875
 30
0.0
 10
17.4794725453
 20
14.1783704953
 30
0.0
 10
17.4772611758
 20
14.1773756633
 30
0.0
 10
17.4754893181
 20
14.1765848634
 30
0.0
 10
17.4743882094
 20
14.1760790551
 30
0.0
 10
17.4734928872
 20
14.1757008821
 30
0.0
 10
17.4726502641
 20
14.1752260611
 30
0.0
 10
17.4712001548
 20
14.1743502273
 30
0.0
 10
17.4691157969
 20
14.1731224612
 30
0.0
 10
17.4657879628
 20
14.1711449443
 30
0.0
 10
17.4616257245
 20
14.1686775323
 30
0.0
 10
17.4549675181
 20
14.1647271566
 30
0.0
 10
17.4466442315
 20
14.1597901238
 30
0.0
 10
17.4383213407
 20
14.1548524892
 30
0.0
 10
17.4316625009
 20
14.1509030765
 30
0.0
 10
17.4275018461
 20
14.1484332569
 30
0.0
 10
17.4241707659
 20
14.1464606756
 30
0.0
 10
17.4220946717
 20
14.1452203445
 30
0.0
 10
17.4206297199
 20
14.1443670789
 30
0.0
 10
17.4198108883
 20
14.1438560826
 30
0.0
 10
17.4190609339
 20
14.143256875
 30
0.0
 10
17.4180999074
 20
14.1425380689
 30
0.0
 10
17.4165754446
 20
14.1413711001
 30
0.0
 10
17.4146653534
 20
14.1399181685
 30
0.0
 10
17.4116117296
 20
14.1375902478
 30
0.0
 10
17.4077938346
 20
14.1346814552
 30
0.0
 10
17.4032127309
 20
14.1311904298
 30
0.0
 10
17.3971044635
 20
14.1265358947
 30
0.0
 10
17.386415056
 20
14.1183903807
 30
0.0
 10
17.3772526859
 20
14.1114085381
 30
0.0
 10
17.3711444438
 20
14.1067539705
 30
0.0
  0
SPLINE
  5
3DA
100
AcDbEntity
  8
03___PRT_ALL_CURVES
100
AcDbSpline
 62
7
  6
BYLAYER
 70
0
 71
3
 72
143
 73
139
 74
0
 42
0.0000001
 43
0.0000001
 44
0.0000000001
 40
0.0
 40
0.0
 40
0.0
 40
0.0
 40
0.03125
 40
0.0625
 40
0.078125
 40
0.09375
 40
0.109375
 40
0.1171875
 40
0.125
 40
0.12890625
 40
0.1328125
 40
0.13671875
 40
0.138671875
 40
0.140625
 40
0.1416015625
 40
0.142578125
 40
0.14453125
 40
0.146484375
 40
0.1484375
 40
0.15234375
 40
0.15625
 40
0.1640625
 40
0.171875
 40
0.1875
 40
0.203125
 40
0.21875
 40
0.234375
 40
0.25
 40
0.2578125
 40
0.265625
 40
0.2734375
 40
0.27734375
 40
0.28125
 40
0.283203125
 40
0.2841796875
 40
0.28515625
 40
0.2856445312
 40
0.2861328125
 40
0.287109375
 40
0.2890625
 40
0.29296875
 40
0.296875
 40
0.3046875
 40
0.3125
 40
0.328125
 40
0.34375
 40
0.375
 40
0.390625
 40
0.3984375
 40
0.40625
 40
0.4140625
 40
0.41796875
 40
0.421875
 40
0.42578125
 40
0.4267578125
 40
0.427734375
 40
0.4287109375
 40
0.4296875
 40
0.431640625
 40
0.43359375
 40
0.4375
 40
0.44140625
 40
0.4453125
 40
0.453125
 40
0.4609375
 40
0.46875
 40
0.484375
 40
0.5
 40
0.515625
 40
0.53125
 40
0.5390625
 40
0.546875
 40
0.5546875
 40
0.55859375
 40
0.5625
 40
0.56640625
 40
0.568359375
 40
0.5703125
 40
0.5708007812
 40
0.5712890625
 40
0.572265625
 40
0.5732421875
 40
0.57421875
 40
0.578125
 40
0.58203125
 40
0.5859375
 40
0.59375
 40
0.6015625
 40
0.609375
 40
0.625
 40
0.65625
 40
0.671875
 40
0.6875
 40
0.6953125
 40
0.69921875
 40
0.703125
 40
0.70703125
 40
0.7109375
 40
0.712890625
 40
0.7138671875
 40
0.7143554688
 40
0.71484375
 40
0.7158203125
 40
0.716796875
 40
0.71875
 40
0.720703125
 40
0.72265625
 40
0.7265625
 40
0.734375
 40
0.7421875
 40
0.75
 40
0.765625
 40
0.78125
 40
0.796875
 40
0.8125
 40
0.828125
 40
0.8359375
 40
0.84375
 40
0.84765625
 40
0.8515625
 40
0.853515625
 40
0.85546875
 40
0.857421875
 40
0.8583984375
 40
0.859375
 40
0.861328125
 40
0.86328125
 40
0.8671875
 40
0.87109375
 40
0.875
 40
0.8828125
 40
0.890625
 40
0.8984375
 40
0.90625
 40
0.921875
 40
0.9375
 40
0.96875
 40
1.0
 40
1.0
 40
1.0
 40
1.0
 10
17.3711444494
 20
14.1067539753
 30
0.0
 10
17.36686686
 20
14.1023689944
 30
0.0
 10
17.3583116811
 20
14.0935990326
 30
0.0
 10
17.3476177071
 20
14.0826365804
 30
0.0
 10
17.3390625288
 20
14.0738666184
 30
0.0
 10
17.3326461426
 20
14.0672891478
 30
0.0
 10
17.3272991618
 20
14.0618079192
 30
0.0
 10
17.32302156
 20
14.0574229433
 30
0.0
 10
17.320348098
 20
14.0546823174
 30
0.0
 10
17.3182092387
 20
14.0524898534
 30
0.0
 10
17.3166053398
 20
14.0508454048
 30
0.0
 10
17.3152679763
 20
14.0494753509
 30
0.0
 10
17.3141998373
 20
14.0483785903
 30
0.0
 10
17.3135282616
 20
14.0476947486
 30
0.0
 10
17.3130001361
 20
14.0471439338
 30
0.0
 10
17.3124386617
 20
14.0466067776
 30
0.0
 10
17.3119755166
 20
14.0458375704
 30
0.0
 10
17.3113639389
 20
14.0449373769
 30
0.0
 10
17.310567993
 20
14.0437291361
 30
0.0
 10
17.309566387
 20
14.0422215684
 30
0.0
 10
17.3079675468
 20
14.0398079326
 30
0.0
 10
17.3059677197
 20
14.0367914108
 30
0.0
 10
17.3027687099
 20
14.0319646836
 30
0.0
 10
17.298769703
 20
14.025931375
 30
0.0
 10
17.2939709992
 20
14.0186913617
 30
0.0
 10
17.2891722687
 20
14.0114513596
 30
0.0
 10
17.2843735402
 20
14.0042113554
 30
0.0
 10
17.2803746154
 20
13.9981780164
 30
0.0
 10
17.2771754372
 20
13.9933513514
 30
0.0
 10
17.2747761594
 20
13.9897313354
 30
0.0
 10
17.2727764244
 20
13.9867147103
 30
0.0
 10
17.2711773918
 20
13.9843012871
 30
0.0
 10
17.2701762762
 20
13.9827931781
 30
0.0
 10
17.2694789425
 20
13.9817369396
 30
0.0
 10
17.2690750727
 20
13.9811342543
 30
0.0
 10
17.2688353168
 20
13.980755511
 30
0.0
 10
17.26861447
 20
13.9804572524
 30
0.0
 10
17.268499661
 20
13.9801417016
 30
0.0
 10
17.268280263
 20
13.9795925018
 30
0.0
 10
17.267854587
 20
13.9784919625
 30
0.0
 10
17.2672396331
 20
13.9769208798
 30
0.0
 10
17.2662595324
 20
13.9744065236
 30
0.0
 10
17.2650330966
 20
13.971263792
 30
0.0
 10
17.2630715314
 20
13.966235302
 30
0.0
 10
17.2606193241
 20
13.9599497304
 30
0.0
 10
17.2566959333
 20
13.949892793
 30
0.0
 10
17.2527724999
 20
13.9398358622
 30
0.0
 10
17.2493395149
 20
13.9310360455
 30
0.0
 10
17.2473777976
 20
13.9260075793
 30
0.0
 10
17.2459065389
 20
13.922236229
 30
0.0
 10
17.2446803971
 20
13.919093439
 30
0.0
 10
17.2436996921
 20
13.9165792026
 30
0.0
 10
17.2429635937
 20
13.9146935373
 30
0.0
 10
17.2424131505
 20
13.9132792542
 30
0.0
 10
17.2420436488
 20
13.9123364519
 30
0.0
 10
17.2418634335
 20
13.9118649558
 30
0.0
 10
17.241665584
 20
13.911393829
 30
0.0
 10
17.2416329286
 20
13.9107608192
 30
0.0
 10
17.2415129654
 20
13.9099712144
 30
0.0
 10
17.241365258
 20
13.9087069204
 30
0.0
 10
17.2411654473
 20
13.9071268707
 30
0.0
 10
17.2409321705
 20
13.905230675
 30
0.0
 10
17.2406188657
 20
13.9027024617
 30
0.0
 10
17.2402280131
 20
13.8995421787
 30
0.0
 10
17.2397586568
 20
13.895749846
 30
0.0
 10
17.2391329648
 20
13.8906934001
 30
0.0
 10
17.2383508099
 20
13.8843728435
 30
0.0
 10
17.2374122409
 20
13.8767881751
 30
0.0
 10
17.2364736683
 20
13.8692035072
 30
0.0
 10
17.2356915224
 20
13.8628829496
 30
0.0
 10
17.2350658125
 20
13.8578265055
 30
0.0
 10
17.2345965107
 20
13.8540341672
 30
0.0
 10
17.2342054877
 20
13.8508739021
 30
0.0
 10
17.2338925306
 20
13.8483456522
 30
0.0
 10
17.2336581916
 20
13.8464495681
 30
0.0
 10
17.2334617044
 20
13.8448691693
 30
0.0
 10
17.2333072164
 20
13.8436055875
 30
0.0
 10
17.2332147799
 20
13.8428933119
 30
0.0
 10
17.2331619618
 20
13.8424208644
 30
0.0
 10
17.2331057274
 20
13.842100163
 30
0.0
 10
17.2331886986
 20
13.8417411082
 30
0.0
 10
17.2332525084
 20
13.8413004856
 30
0.0
 10
17.2333985207
 20
13.8404242594
 30
0.0
 10
17.2336098154
 20
13.8391078125
 30
0.0
 10
17.2338959496
 20
13.8373537528
 30
0.0
 10
17.2342759222
 20
13.8350145863
 30
0.0
 10
17.2347514162
 20
13.8320907724
 30
0.0
 10
17.2353217829
 20
13.828582134
 30
0.0
 10
17.2360823507
 20
13.8239039709
 30
0.0
 10
17.2374133081
 20
13.8157171758
 30
0.0
 10
17.2389344141
 20
13.8063608412
 30
0.0
 10
17.2404555259
 20
13.7970045097
 30
0.0
 10
17.2414061964
 20
13.7911567926
 30
0.0
 10
17.2420717157
 20
13.7870634107
 30
0.0
 10
17.2424519341
 20
13.784724304
 30
0.0
 10
17.2427373188
 20
13.7829700624
 30
0.0
 10
17.243021859
 20
13.7812154825
 30
0.0
 10
17.2432616068
 20
13.7797543863
 30
0.0
 10
17.2434242747
 20
13.7787295543
 30
0.0
 10
17.2435126513
 20
13.7782199588
 30
0.0
 10
17.2435518156
 20
13.7779242211
 30
0.0
 10
17.2437047991
 20
13.777674067
 30
0.0
 10
17.2438570566
 20
13.7773457665
 30
0.0
 10
17.24412245
 20
13.7768292089
 30
0.0
 10
17.2444467187
 20
13.776180519
 30
0.0
 10
17.2448390396
 20
13.7754033721
 30
0.0
 10
17.2453610184
 20
13.7743667294
 30
0.0
 10
17.2462750012
 20
13.7725528128
 30
0.0
 10
17.2475804192
 20
13.7699613946
 30
0.0
 10
17.249147037
 20
13.7668517394
 30
0.0
 10
17.2512358201
 20
13.7627055161
 30
0.0
 10
17.2538468135
 20
13.7575227428
 30
0.0
 10
17.2569799971
 20
13.7513034112
 30
0.0
 10
17.2601131913
 20
13.7450840851
 30
0.0
 10
17.2632463515
 20
13.7388647407
 30
0.0
 10
17.2658574227
 20
13.7336820099
 30
0.0
 10
17.2679460462
 20
13.7295356996
 30
0.0
 10
17.2692519674
 20
13.7269445418
 30
0.0
 10
17.2702954871
 20
13.7248709602
 30
0.0
 10
17.2709504642
 20
13.7235764669
 30
0.0
 10
17.2714680847
 20
13.7225374478
 30
0.0
 10
17.2718737174
 20
13.7217675596
 30
0.0
 10
17.2721563374
 20
13.7210961591
 30
0.0
 10
17.2726099557
 20
13.7206815193
 30
0.0
 10
17.2730238397
 20
13.7202454895
 30
0.0
 10
17.2735547997
 20
13.7197077763
 30
0.0
 10
17.2743967318
 20
13.7188433417
 30
0.0
 10
17.2754517558
 20
13.7177642028
 30
0.0
 10
17.2767166679
 20
13.7164686351
 30
0.0
 10
17.2784036075
 20
13.7147414214
 30
0.0
 10
17.2805121482
 20
13.7125823323
 30
0.0
 10
17.2830424543
 20
13.7099914563
 30
0.0
 10
17.2855727451
 20
13.7074005719
 30
0.0
 10
17.2889464715
 20
13.7039460624
 30
0.0
 10
17.2931636276
 20
13.6996279245
 30
0.0
 10
17.2999110785
 20
13.6927189043
 30
0.0
 10
17.3083453918
 20
13.684082629
 30
0.0
 10
17.3150928425
 20
13.6771736087
 30
0.0
 10
17.3184665679
 20
13.6737190986
 30
0.0
  0
SPLINE
  5
3DB
100
AcDbEntity
  8
03___PRT_ALL_CURVES
100
AcDbSpline
 62
7
  6
BYLAYER
 70
0
 71
3
 72
76
 73
72
 74
0
 42
0.0000001
 43
0.0000001
 44
0.0000000001
 40
0.0
 40
0.0
 40
0.0
 40
0.0
 40
0.0625
 40
0.09375
 40
0.109375
 40
0.125
 40
0.140625
 40
0.15625
 40
0.16015625
 40
0.1640625
 40
0.16796875
 40
0.171875
 40
0.1796875
 40
0.1875
 40
0.203125
 40
0.21875
 40
0.25
 40
0.28125
 40
0.296875
 40
0.3125
 40
0.3203125
 40
0.328125
 40
0.33203125
 40
0.3359375
 40
0.33984375
 40
0.34375
 40
0.359375
 40
0.375
 40
0.390625
 40
0.40625
 40
0.4375
 40
0.453125
 40
0.46875
 40
0.484375
 40
0.4921875
 40
0.49609375
 40
0.5
 40
0.50390625
 40
0.5078125
 40
0.515625
 40
0.53125
 40
0.546875
 40
0.5625
 40
0.59375
 40
0.609375
 40
0.625
 40
0.640625
 40
0.65625
 40
0.6640625
 40
0.66796875
 40
0.671875
 40
0.6796875
 40
0.6875
 40
0.703125
 40
0.71875
 40
0.75
 40
0.78125
 40
0.796875
 40
0.8125
 40
0.8203125
 40
0.828125
 40
0.83203125
 40
0.8359375
 40
0.83984375
 40
0.84375
 40
0.859375
 40
0.875
 40
0.890625
 40
0.90625
 40
0.9375
 40
1.0
 40
1.0
 40
1.0
 40
1.0
 10
17.3184665633
 20
13.6737191021
 30
0.0
 10
17.3216710925
 20
13.6715804964
 30
0.0
 10
17.326477901
 20
13.6683725969
 30
0.0
 10
17.3320857925
 20
13.6646300156
 30
0.0
 10
17.335290376
 20
13.6624914433
 30
0.0
 10
17.337693606
 20
13.6608873865
 30
0.0
 10
17.3400976294
 20
13.6592838171
 30
0.0
 10
17.3418984226
 20
13.6580797738
 30
0.0
 10
17.3431024107
 20
13.6572792029
 30
0.0
 10
17.3436982276
 20
13.6568751236
 30
0.0
 10
17.3443180612
 20
13.6564857951
 30
0.0
 10
17.3452587813
 20
13.6560368778
 30
0.0
 10
17.3463955538
 20
13.6554516991
 30
0.0
 10
17.3482362565
 20
13.6545288438
 30
0.0
 10
17.3505296454
 20
13.6533706733
 30
0.0
 10
17.3542032666
 20
13.6515201877
 30
0.0
 10
17.3587937585
 20
13.6492060828
 30
0.0
 10
17.3633851399
 20
13.6468927357
 30
0.0
 10
17.3670573381
 20
13.6450410376
 30
0.0
 10
17.3693542844
 20
13.6438858985
 30
0.0
 10
17.3711876944
 20
13.642956829
 30
0.0
 10
17.372343032
 20
13.64238747
 30
0.0
 10
17.3732456436
 20
13.6419060796
 30
0.0
 10
17.373981904
 20
13.6416159607
 30
0.0
 10
17.3747347819
 20
13.641345716
 30
0.0
 10
17.3762319897
 20
13.6407950033
 30
0.0
 10
17.3784813913
 20
13.6399732279
 30
0.0
 10
17.3814785426
 20
13.6388750747
 30
0.0
 10
17.3844762388
 20
13.6377775722
 30
0.0
 10
17.3884729954
 20
13.6363140352
 30
0.0
 10
17.3924696924
 20
13.6348503991
 30
0.0
 10
17.3964666968
 20
13.6333872104
 30
0.0
 10
17.3994635874
 20
13.6322885758
 30
0.0
 10
17.4019637438
 20
13.631377004
 30
0.0
 10
17.4037084608
 20
13.6307311379
 30
0.0
 10
17.404713862
 20
13.6303741973
 30
0.0
 10
17.4054441936
 20
13.6300723335
 30
0.0
 10
17.4062651922
 20
13.6299010404
 30
0.0
 10
17.4073282313
 20
13.629627105
 30
0.0
 10
17.4092032849
 20
13.6291689382
 30
0.0
 10
17.4118742287
 20
13.6285033193
 30
0.0
 10
17.4150826611
 20
13.6277093294
 30
0.0
 10
17.4193594072
 20
13.626648997
 30
0.0
 10
17.4236365359
 20
13.6255892345
 30
0.0
 10
17.4279133897
 20
13.6245290215
 30
0.0
 10
17.4311214723
 20
13.6237346435
 30
0.0
 10
17.4343279231
 20
13.6229373638
 30
0.0
 10
17.4370050363
 20
13.622281985
 30
0.0
 10
17.4388690808
 20
13.6218055452
 30
0.0
 10
17.4399497587
 20
13.6215608869
 30
0.0
 10
17.4410888548
 20
13.6214201593
 30
0.0
 10
17.4424927227
 20
13.621208664
 30
0.0
 10
17.4447500897
 20
13.620890159
 30
0.0
 10
17.447567969
 20
13.6204852153
 30
0.0
 10
17.4520787281
 20
13.6198411297
 30
0.0
 10
17.4577163529
 20
13.6190345896
 30
0.0
 10
17.4633545833
 20
13.6182290015
 30
0.0
 10
17.4678643736
 20
13.6175833929
 30
0.0
 10
17.4706846749
 20
13.6171822567
 30
0.0
 10
17.4729370767
 20
13.6168559463
 30
0.0
 10
17.4743535847
 20
13.6166643213
 30
0.0
 10
17.4754667345
 20
13.616482806
 30
0.0
 10
17.4763565125
 20
13.616423924
 30
0.0
 10
17.477261679
 20
13.6163866903
 30
0.0
 10
17.479064096
 20
13.6163010868
 30
0.0
 10
17.4817710464
 20
13.6161773589
 30
0.0
 10
17.4853784132
 20
13.616009715
 30
0.0
 10
17.4889862884
 20
13.6158427862
 30
0.0
 10
17.4937966113
 20
13.615619965
 30
0.0
 10
17.5022147594
 20
13.6152301448
 30
0.0
 10
17.5094302865
 20
13.6148959731
 30
0.0
 10
17.5142406442
 20
13.6146732008
 30
0.0
  0
SPLINE
  5
3DC
100
AcDbEntity
  8
03___PRT_ALL_CURVES
100
AcDbSpline
 62
7
  6
BYLAYER
 70
0
 71
3
 72
69
 73
65
 74
0
 42
0.0000001
 43
0.0000001
 44
0.0000000001
 40
0.0
 40
0.0
 40
0.0
 40
0.0
 40
0.0625
 40
0.09375
 40
0.125
 40
0.140625
 40
0.15625
 40
0.1640625
 40
0.16796875
 40
0.171875
 40
0.1796875
 40
0.1875
 40
0.203125
 40
0.21875
 40
0.25
 40
0.28125
 40
0.296875
 40
0.3125
 40
0.3203125
 40
0.328125
 40
0.33203125
 40
0.3359375
 40
0.34375
 40
0.359375
 40
0.375
 40
0.40625
 40
0.4375
 40
0.453125
 40
0.46875
 40
0.484375
 40
0.4921875
 40
0.49609375
 40
0.5
 40
0.50390625
 40
0.5078125
 40
0.515625
 40
0.53125
 40
0.546875
 40
0.5625
 40
0.59375
 40
0.625
 40
0.640625
 40
0.65625
 40
0.6640625
 40
0.66796875
 40
0.671875
 40
0.6796875
 40
0.6875
 40
0.703125
 40
0.71875
 40
0.75
 40
0.78125
 40
0.796875
 40
0.8125
 40
0.8203125
 40
0.828125
 40
0.83203125
 40
0.8359375
 40
0.84375
 40
0.859375
 40
0.875
 40
0.90625
 40
0.9375
 40
1.0
 40
1.0
 40
1.0
 40
1.0
 10
17.514240648
 20
13.6146732008
 30
0.0
 10
17.518907435
 20
13.6148716162
 30
0.0
 10
17.5259077324
 20
13.6151694457
 30
0.0
 10
17.5352409946
 20
13.6155657257
 30
0.0
 10
17.541075258
 20
13.6158151217
 30
0.0
 10
17.5457404467
 20
13.6160107146
 30
0.0
 10
17.5486612573
 20
13.6161419093
 30
0.0
 10
17.5506956687
 20
13.6162158108
 30
0.0
 10
17.5518740796
 20
13.6162861007
 30
0.0
 10
17.5531123505
 20
13.6164620985
 30
0.0
 10
17.5546396931
 20
13.6166459015
 30
0.0
 10
17.5570948956
 20
13.6169602136
 30
0.0
 10
17.5601599764
 20
13.617346175
 30
0.0
 10
17.5650662992
 20
13.6179676028
 30
0.0
 10
17.5711984408
 20
13.6187429309
 30
0.0
 10
17.5773308881
 20
13.6195192238
 30
0.0
 10
17.5822367218
 20
13.6201391078
 30
0.0
 10
17.5853030254
 20
13.6205289289
 30
0.0
 10
17.5877557212
 20
13.6208353287
 30
0.0
 10
17.589289445
 20
13.6210392743
 30
0.0
 10
17.5905146174
 20
13.6211739254
 30
0.0
 10
17.5917463853
 20
13.6214126412
 30
0.0
 10
17.5939050431
 20
13.621878736
 30
0.0
 10
17.5969872412
 20
13.622519364
 30
0.0
 10
17.6019196522
 20
13.6235584595
 30
0.0
 10
17.608084855
 20
13.6248525351
 30
0.0
 10
17.6142501843
 20
13.6261481725
 30
0.0
 10
17.619182393
 20
13.6271847691
 30
0.0
 10
17.622881638
 20
13.6279610196
 30
0.0
 10
17.6259640699
 20
13.6286118486
 30
0.0
 10
17.6281223053
 20
13.62905965
 30
0.0
 10
17.6293547505
 20
13.6293276858
 30
0.0
 10
17.6302814286
 20
13.6294944873
 30
0.0
 10
17.6311991458
 20
13.6297921155
 30
0.0
 10
17.6324258944
 20
13.6301433194
 30
0.0
 10
17.6345712481
 20
13.6307791874
 30
0.0
 10
17.6376368
 20
13.6316764574
 30
0.0
 10
17.6413151391
 20
13.6327579265
 30
0.0
 10
17.646219692
 20
13.6341982852
 30
0.0
 10
17.6523504348
 20
13.635998872
 30
0.0
 10
17.658480845
 20
13.6378009051
 30
0.0
 10
17.66338593
 20
13.6392389498
 30
0.0
 10
17.6664498823
 20
13.6401459591
 30
0.0
 10
17.6685981077
 20
13.6407643631
 30
0.0
 10
17.6698202535
 20
13.6411435575
 30
0.0
 10
17.6710220133
 20
13.6416200223
 30
0.0
 10
17.6725311933
 20
13.6421822981
 30
0.0
 10
17.6749419803
 20
13.6431005523
 30
0.0
 10
17.6779567999
 20
13.6442419939
 30
0.0
 10
17.6827797637
 20
13.6460718815
 30
0.0
 10
17.688808732
 20
13.6483578874
 30
0.0
 10
17.6948375808
 20
13.6506448317
 30
0.0
 10
17.6996607357
 20
13.6524732179
 30
0.0
 10
17.7026750777
 20
13.6536184132
 30
0.0
 10
17.705086844
 20
13.6545289723
 30
0.0
 10
17.7065935309
 20
13.6551108377
 30
0.0
 10
17.707800408
 20
13.6555470909
 30
0.0
 10
17.7090017087
 20
13.6560900878
 30
0.0
 10
17.7111013943
 20
13.6570899195
 30
0.0
 10
17.7141022968
 20
13.6584923783
 30
0.0
 10
17.7189029855
 20
13.6607507712
 30
0.0
 10
17.7249041051
 20
13.6635688096
 30
0.0
 10
17.7345057512
 20
13.6680804515
 30
0.0
 10
17.7417070184
 20
13.6714635573
 30
0.0
 10
17.746507856
 20
13.6737191002
 30
0.0
  0
SPLINE
  5
3DD
100
AcDbEntity
  8
03___PRT_ALL_CURVES
100
AcDbSpline
 62
7
  6
BYLAYER
 70
0
 71
3
 72
140
 73
136
 74
0
 42
0.0000001
 43
0.0000001
 44
0.0000000001
 40
0.0
 40
0.0
 40
0.0
 40
0.0
 40
0.03125
 40
0.0625
 40
0.078125
 40
0.09375
 40
0.109375
 40
0.1171875
 40
0.125
 40
0.12890625
 40
0.1328125
 40
0.13671875
 40
0.138671875
 40
0.140625
 40
0.1416015625
 40
0.142578125
 40
0.14453125
 40
0.146484375
 40
0.1484375
 40
0.15234375
 40
0.15625
 40
0.1640625
 40
0.171875
 40
0.1875
 40
0.203125
 40
0.21875
 40
0.234375
 40
0.25
 40
0.2578125
 40
0.265625
 40
0.2734375
 40
0.27734375
 40
0.28125
 40
0.283203125
 40
0.2841796875
 40
0.28515625
 40
0.2856445312
 40
0.2861328125
 40
0.287109375
 40
0.2890625
 40
0.29296875
 40
0.296875
 40
0.3046875
 40
0.3125
 40
0.328125
 40
0.34375
 40
0.375
 40
0.390625
 40
0.3984375
 40
0.40625
 40
0.4140625
 40
0.41796875
 40
0.421875
 40
0.42578125
 40
0.427734375
 40
0.4287109375
 40
0.4296875
 40
0.431640625
 40
0.43359375
 40
0.4375
 40
0.44140625
 40
0.4453125
 40
0.453125
 40
0.4609375
 40
0.46875
 40
0.484375
 40
0.5
 40
0.515625
 40
0.53125
 40
0.5390625
 40
0.546875
 40
0.5546875
 40
0.55859375
 40
0.5625
 40
0.56640625
 40
0.568359375
 40
0.5703125
 40
0.5712890625
 40
0.572265625
 40
0.5732421875
 40
0.57421875
 40
0.578125
 40
0.58203125
 40
0.5859375
 40
0.59375
 40
0.6015625
 40
0.609375
 40
0.625
 40
0.65625
 40
0.671875
 40
0.6875
 40
0.6953125
 40
0.69921875
 40
0.703125
 40
0.70703125
 40
0.7109375
 40
0.712890625
 40
0.7138671875
 40
0.7143554688
 40
0.71484375
 40
0.7158203125
 40
0.716796875
 40
0.71875
 40
0.72265625
 40
0.7265625
 40
0.734375
 40
0.7421875
 40
0.75
 40
0.765625
 40
0.78125
 40
0.796875
 40
0.8125
 40
0.828125
 40
0.8359375
 40
0.84375
 40
0.84765625
 40
0.8515625
 40
0.853515625
 40
0.85546875
 40
0.857421875
 40
0.8583984375
 40
0.859375
 40
0.861328125
 40
0.86328125
 40
0.8671875
 40
0.87109375
 40
0.875
 40
0.8828125
 40
0.890625
 40
0.8984375
 40
0.90625
 40
0.921875
 40
0.9375
 40
0.96875
 40
1.0
 40
1.0
 40
1.0
 40
1.0
 10
17.7465078596
 20
13.6737191021
 30
0.0
 10
17.7519374235
 20
13.6771143556
 30
0.0
 10
17.762796551
 20
13.6839048626
 30
0.0
 10
17.7763704608
 20
13.692392996
 30
0.0
 10
17.7872295879
 20
13.6991835034
 30
0.0
 10
17.795373935
 20
13.7042763823
 30
0.0
 10
17.8021608855
 20
13.7085204533
 30
0.0
 10
17.8075904581
 20
13.7119156983
 30
0.0
 10
17.8109839132
 20
13.7140377533
 30
0.0
 10
17.8136987408
 20
13.7157353357
 30
0.0
 10
17.8157346875
 20
13.7170086912
 30
0.0
 10
17.8174318633
 20
13.7180692842
 30
0.0
 10
17.8187883625
 20
13.7189189621
 30
0.0
 10
17.8196390015
 20
13.7194472703
 30
0.0
 10
17.8203130381
 20
13.7198761932
 30
0.0
 10
17.8210107112
 20
13.720282203
 30
0.0
 10
17.8217136227
 20
13.7209537179
 30
0.0
 10
17.822596668
 20
13.7217211947
 30
0.0
 10
17.8237602471
 20
13.7227578888
 30
0.0
 10
17.8252194511
 20
13.7240491711
 30
0.0
 10
17.8275515341
 20
13.7261177853
 30
0.0
 10
17.830467543
 20
13.7287026757
 30
0.0
 10
17.8351326514
 20
13.7328389906
 30
0.0
 10
17.8409642103
 20
13.7380092161
 30
0.0
 10
17.847962007
 20
13.7442135586
 30
0.0
 10
17.8549598223
 20
13.7504178825
 30
0.0
 10
17.8619576369
 20
13.7566222091
 30
0.0
 10
17.8677891362
 20
13.7617924876
 30
0.0
 10
17.8724543667
 20
13.7659286938
 30
0.0
 10
17.8759532043
 20
13.7690308943
 30
0.0
 10
17.8788691735
 20
13.7716159157
 30
0.0
 10
17.8812013407
 20
13.7736842596
 30
0.0
 10
17.88266033
 20
13.7749762303
 30
0.0
 10
17.8836788474
 20
13.7758821012
 30
0.0
 10
17.8842651993
 20
13.7763974083
 30
0.0
 10
17.884621475
 20
13.7767249538
 30
0.0
 10
17.8849298763
 20
13.7769744249
 30
0.0
 10
17.8851529101
 20
13.7772697742
 30
0.0
 10
17.8855580987
 20
13.7777786389
 30
0.0
 10
17.8863579134
 20
13.7788020449
 30
0.0
 10
17.8875060169
 20
13.7802610918
 30
0.0
 10
17.8893399026
 20
13.7825972218
 30
0.0
 10
17.8916333142
 20
13.7855168177
 30
0.0
 10
17.8953021836
 20
13.7901884878
 30
0.0
 10
17.8998884718
 20
13.7960279671
 30
0.0
 10
17.9072264218
 20
13.805371194
 30
0.0
 10
17.914564394
 20
13.814714407
 30
0.0
 10
17.9209851341
 20
13.8228897156
 30
0.0
 10
17.9246540927
 20
13.8275613322
 30
0.0
 10
17.9274059149
 20
13.8310650104
 30
0.0
 10
17.9296987708
 20
13.8339848516
 30
0.0
 10
17.931533794
 20
13.8363204792
 30
0.0
 10
17.9329080436
 20
13.8380728703
 30
0.0
 10
17.9340596698
 20
13.8395310637
 30
0.0
 10
17.9348532128
 20
13.8405559841
 30
0.0
 10
17.9353263325
 20
13.8411351183
 30
0.0
 10
17.9356023958
 20
13.8417797291
 30
0.0
 10
17.9360149472
 20
13.8425630733
 30
0.0
 10
17.9366373192
 20
13.8438289541
 30
0.0
 10
17.9374282224
 20
13.8454070061
 30
0.0
 10
17.9383717682
 20
13.8473025087
 30
0.0
 10
17.9396317637
 20
13.8498292027
 30
0.0
 10
17.9412060945
 20
13.8529877907
 30
0.0
 10
17.9430955755
 20
13.8567780019
 30
0.0
 10
17.9456147843
 20
13.8618316499
 30
0.0
 10
17.9487638295
 20
13.8681486985
 30
0.0
 10
17.9525426679
 20
13.8757291616
 30
0.0
 10
17.9563215149
 20
13.8833096236
 30
0.0
 10
17.9594705388
 20
13.8896266752
 30
0.0
 10
17.9619897904
 20
13.894680317
 30
0.0
 10
17.9638791407
 20
13.8984705469
 30
0.0
 10
17.9654538803
 20
13.9016290767
 30
0.0
 10
17.9667130417
 20
13.9041558894
 30
0.0
 10
17.9676591351
 20
13.9060510295
 30
0.0
 10
17.9684420675
 20
13.9076302156
 30
0.0
 10
17.9690807014
 20
13.9088937826
 30
0.0
 10
17.969451867
 20
13.9096830154
 30
0.0
 10
17.969812881
 20
13.910315539
 30
0.0
 10
17.9699081854
 20
13.9107868176
 30
0.0
 10
17.9700213374
 20
13.911258413
 30
0.0
 10
17.9702384606
 20
13.9122014409
 30
0.0
 10
17.9705680009
 20
13.9136160512
 30
0.0
 10
17.9710051875
 20
13.9155021592
 30
0.0
 10
17.9715888717
 20
13.9180169835
 30
0.0
 10
17.9723182132
 20
13.9211605092
 30
0.0
 10
17.9731935358
 20
13.924932742
 30
0.0
 10
17.9743605933
 20
13.929962385
 30
0.0
 10
17.9764029617
 20
13.9387642606
 30
0.0
 10
17.9787370933
 20
13.9488235475
 30
0.0
 10
17.9810712159
 20
13.9588828327
 30
0.0
 10
17.9825300679
 20
13.9651698897
 30
0.0
 10
17.983551213
 20
13.9695708221
 30
0.0
 10
17.9841348049
 20
13.9720856523
 30
0.0
 10
17.9845722723
 20
13.973971742
 30
0.0
 10
17.9850106055
 20
13.9758579576
 30
0.0
 10
17.9853731858
 20
13.9774294119
 30
0.0
 10
17.9856322777
 20
13.9785301982
 30
0.0
 10
17.9857546033
 20
13.9790795418
 30
0.0
 10
17.9858361263
 20
13.9793951418
 30
0.0
 10
17.985800956
 20
13.9796937796
 30
0.0
 10
17.9857969435
 20
13.9800728838
 30
0.0
 10
17.9857682275
 20
13.9806762097
 30
0.0
 10
17.9857283613
 20
13.9817335399
 30
0.0
 10
17.9856659901
 20
13.9832432238
 30
0.0
 10
17.9855692252
 20
13.9856591583
 30
0.0
 10
17.9854472298
 20
13.9886789254
 30
0.0
 10
17.9853012802
 20
13.9923027105
 30
0.0
 10
17.9851065253
 20
13.9971344015
 30
0.0
 10
17.9848631345
 20
14.0031740228
 30
0.0
 10
17.9845710454
 20
14.0104215657
 30
0.0
 10
17.9842789526
 20
14.017669107
 30
0.0
 10
17.9839868944
 20
14.0249166577
 30
0.0
 10
17.9837434005
 20
14.030956253
 30
0.0
 10
17.9835488571
 20
14.0357879973
 30
0.0
 10
17.983426694
 20
14.0388076826
 30
0.0
 10
17.983330277
 20
14.0412237854
 30
0.0
 10
17.9832670194
 20
14.0427330407
 30
0.0
 10
17.9832232778
 20
14.0439422979
 30
0.0
 10
17.9831716763
 20
14.0448441672
 30
0.0
 10
17.9831884657
 20
14.0456118648
 30
0.0
 10
17.9829563751
 20
14.0461597468
 30
0.0
 10
17.9827671623
 20
14.0467192032
 30
0.0
 10
17.9825159649
 20
14.0474145606
 30
0.0
 10
17.9821222545
 20
14.0485293474
 30
0.0
 10
17.9816273013
 20
14.049922071
 30
0.0
 10
17.9810345625
 20
14.0515936645
 30
0.0
 10
17.9802438232
 20
14.0538223423
 30
0.0
 10
17.9792555434
 20
14.0566082285
 30
0.0
 10
17.9780695458
 20
14.0599512753
 30
0.0
 10
17.9768835647
 20
14.0632943265
 30
0.0
 10
17.9753022508
 20
14.0677517266
 30
0.0
 10
17.9733256105
 20
14.0733234772
 30
0.0
 10
17.9701629848
 20
14.0822382779
 30
0.0
 10
17.9662097031
 20
14.0933817789
 30
0.0
 10
17.9630470776
 20
14.1022965797
 30
0.0
 10
17.9614657649
 20
14.1067539801
 30
0.0
  0
SPLINE
  5
3DE
100
AcDbEntity
  8
03___PRT_ALL_CURVES
100
AcDbSpline
 62
7
  6
BYLAYER
 70
0
 71
3
 72
101
 73
97
 74
0
 42
0.0000001
 43
0.0000001
 44
0.0000000001
 40
0.0
 40
0.0
 40
0.0
 40
0.0
 40
0.0625
 40
0.09375
 40
0.109375
 40
0.125
 40
0.140625
 40
0.1484375
 40
0.15625
 40
0.16015625
 40
0.1640625
 40
0.166015625
 40
0.1669921875
 40
0.16796875
 40
0.169921875
 40
0.171875
 40
0.1796875
 40
0.1875
 40
0.1953125
 40
0.203125
 40
0.21875
 40
0.25
 40
0.28125
 40
0.296875
 40
0.3046875
 40
0.3125
 40
0.3203125
 40
0.328125
 40
0.330078125
 40
0.33203125
 40
0.3330078125
 40
0.333984375
 40
0.3359375
 40
0.33984375
 40
0.34375
 40
0.3515625
 40
0.359375
 40
0.375
 40
0.390625
 40
0.40625
 40
0.421875
 40
0.4375
 40
0.453125
 40
0.46875
 40
0.4765625
 40
0.484375
 40
0.4921875
 40
0.49609375
 40
0.498046875
 40
0.5
 40
0.501953125
 40
0.50390625
 40
0.5078125
 40
0.515625
 40
0.5234375
 40
0.53125
 40
0.546875
 40
0.5625
 40
0.578125
 40
0.59375
 40
0.609375
 40
0.625
 40
0.640625
 40
0.6484375
 40
0.65625
 40
0.66015625
 40
0.6640625
 40
0.666015625
 40
0.66796875
 40
0.669921875
 40
0.671875
 40
0.6796875
 40
0.6875
 40
0.6953125
 40
0.703125
 40
0.71875
 40
0.75
 40
0.78125
 40
0.796875
 40
0.8046875
 40
0.8125
 40
0.8203125
 40
0.828125
 40
0.830078125
 40
0.83203125
 40
0.833984375
 40
0.8359375
 40
0.83984375
 40
0.84375
 40
0.8515625
 40
0.859375
 40
0.875
 40
0.890625
 40
0.90625
 40
0.9375
 40
1.0
 40
1.0
 40
1.0
 40
1.0
 10
17.9614657674
 20
14.1067539753
 30
0.0
 10
17.9582568622
 20
14.1113824404
 30
0.0
 10
17.9534434999
 20
14.118325135
 30
0.0
 10
17.9478279262
 20
14.126424956
 30
0.0
 10
17.9446190046
 20
14.13105341
 30
0.0
 10
17.9422123759
 20
14.1345247926
 30
0.0
 10
17.940206653
 20
14.1374174776
 30
0.0
 10
17.9386025211
 20
14.1397319258
 30
0.0
 10
17.937598922
 20
14.1411777723
 30
0.0
 10
17.9367983711
 20
14.1423360152
 30
0.0
 10
17.9362927141
 20
14.1430563445
 30
0.0
 10
17.9359494015
 20
14.1435677348
 30
0.0
 10
17.9357365642
 20
14.1438487557
 30
0.0
 10
17.9354609821
 20
14.1440875837
 30
0.0
 10
17.9351379509
 20
14.1444005405
 30
0.0
 10
17.9343450246
 20
14.1451397669
 30
0.0
 10
17.9331630489
 20
14.146253592
 30
0.0
 10
17.931582844
 20
14.1477358427
 30
0.0
 10
17.9300037726
 20
14.1492188557
 30
0.0
 10
17.9278979485
 20
14.1511959403
 30
0.0
 10
17.9242129417
 20
14.1546559631
 30
0.0
 10
17.9189485412
 20
14.1595987808
 30
0.0
 10
17.9136842078
 20
14.1645416493
 30
0.0
 10
17.9099991072
 20
14.1680016009
 30
0.0
 10
17.9078934305
 20
14.1699787975
 30
0.0
 10
17.906313907
 20
14.1714614667
 30
0.0
 10
17.9047353998
 20
14.1729450082
 30
0.0
 10
17.90354867
 20
14.1740552187
 30
0.0
 10
17.9027619481
 20
14.1747991625
 30
0.0
 10
17.9024275533
 20
14.1751034792
 30
0.0
 10
17.90217542
 20
14.1753601361
 30
0.0
 10
17.9018670318
 20
14.1755685066
 30
0.0
 10
17.9013012151
 20
14.1759107201
 30
0.0
 10
17.9005065427
 20
14.1764113019
 30
0.0
 10
17.8992274457
 20
14.1772056913
 30
0.0
 10
17.8976311839
 20
14.1782009179
 30
0.0
 10
17.8950757067
 20
14.1797920286
 30
0.0
 10
17.8918818607
 20
14.1817813466
 30
0.0
 10
17.8880490305
 20
14.1841683436
 30
0.0
 10
17.8842162591
 20
14.1865553914
 30
0.0
 10
17.8803834678
 20
14.1889424209
 30
0.0
 10
17.8765506973
 20
14.1913294725
 30
0.0
 10
17.8727178632
 20
14.1937164542
 30
0.0
 10
17.8695240297
 20
14.19570582
 30
0.0
 10
17.8669685268
 20
14.1972968331
 30
0.0
 10
17.8650530912
 20
14.1984914031
 30
0.0
 10
17.8634531044
 20
14.1994827106
 30
0.0
 10
17.8623405524
 20
14.2001848043
 30
0.0
 10
17.8616931934
 20
14.2005732308
 30
0.0
 10
17.8612403936
 20
14.2009005238
 30
0.0
 10
17.8606625236
 20
14.2010903091
 30
0.0
 10
17.8599356562
 20
14.2013913205
 30
0.0
 10
17.8586433122
 20
14.2018957429
 30
0.0
 10
17.8568077331
 20
14.2026280298
 30
0.0
 10
17.8546004895
 20
14.2035017732
 30
0.0
 10
17.8516590871
 20
14.2046685113
 30
0.0
 10
17.8479817887
 20
14.2061263343
 30
0.0
 10
17.8435692649
 20
14.2078759797
 30
0.0
 10
17.8391566764
 20
14.2096255532
 30
0.0
 10
17.8347441126
 20
14.2113751566
 30
0.0
 10
17.8303315146
 20
14.2131247122
 30
0.0
 10
17.8259190285
 20
14.214874429
 30
0.0
 10
17.8222416124
 20
14.216332029
 30
0.0
 10
17.8193004501
 20
14.217499222
 30
0.0
 10
17.8174604693
 20
14.2182261837
 30
0.0
 10
17.8159925024
 20
14.2188135563
 30
0.0
 10
17.815065856
 20
14.219167423
 30
0.0
 10
17.8143455355
 20
14.2194808444
 30
0.0
 10
17.8137478057
 20
14.219632871
 30
0.0
 10
17.8131339664
 20
14.2197616283
 30
0.0
 10
17.8119145746
 20
14.2200311127
 30
0.0
 10
17.8100820064
 20
14.2204303118
 30
0.0
 10
17.8076405714
 20
14.2209654508
 30
0.0
 10
17.8051986042
 20
14.2214998211
 30
0.0
 10
17.8019428337
 20
14.2222125831
 30
0.0
 10
17.7962451483
 20
14.2234597908
 30
0.0
 10
17.7881056467
 20
14.2252415882
 30
0.0
 10
17.779966115
 20
14.2270233368
 30
0.0
 10
17.7742684718
 20
14.2282706129
 30
0.0
 10
17.7710126351
 20
14.2289832675
 30
0.0
 10
17.7685708709
 20
14.2295179673
 30
0.0
 10
17.7661286736
 20
14.2300518688
 30
0.0
 10
17.7642982399
 20
14.2304545333
 30
0.0
 10
17.7630760624
 20
14.2307194951
 30
0.0
 10
17.7624683456
 20
14.2308581923
 30
0.0
 10
17.7618475186
 20
14.2309727206
 30
0.0
 10
17.7609573685
 20
14.231010425
 30
0.0
 10
17.7598660399
 20
14.2310969313
 30
0.0
 10
17.7581079777
 20
14.2312133363
 30
0.0
 10
17.755914487
 20
14.231366377
 30
0.0
 10
17.7524026176
 20
14.2316070312
 30
0.0
 10
17.7480135645
 20
14.2319092938
 30
0.0
 10
17.7427463655
 20
14.2322713904
 30
0.0
 10
17.7357235504
 20
14.2327544018
 30
0.0
 10
17.7234335692
 20
14.2335995704
 30
0.0
 10
17.7128993184
 20
14.2343240354
 30
0.0
 10
17.7058764803
 20
14.2348070043
 30
0.0
  0
SPLINE
  5
3DF
100
AcDbEntity
  8
0
100
AcDbSpline
 62
7
  6
BYLAYER
 70
0
 71
3
 72
9
 73
5
 74
0
 42
0.0000001
 43
0.0000001
 44
0.0000000001
 40
0.0
 40
0.0
 40
0.0
 40
0.0
 40
0.479758086
 40
1.0
 40
1.0
 40
1.0
 40
1.0
 10
16.5428498066
 20
11.4992494259
 30
0.0
 10
16.5408059372
 20
11.5003799535
 30
0.0
 10
16.5361691772
 20
11.5020814714
 30
0.0
 10
16.5312807648
 20
11.5025838672
 30
0.0
 10
16.5287479694
 20
11.5025838672
 30
0.0
  0
SPLINE
  5
3E0
100
AcDbEntity
  8
0
100
AcDbSpline
 62
7
  6
BYLAYER
 70
0
 71
3
 72
11
 73
7
 74
0
 42
0.0000001
 43
0.0000001
 44
0.0000000001
 40
0.0
 40
0.0
 40
0.0
 40
0.0
 40
0.2268727775
 40
0.4649931183
 40
0.7221570508
 40
1.0
 40
1.0
 40
1.0
 40
1.0
 10
16.480521197
 20
11.480868774
 30
0.0
 10
16.4813964133
 20
11.4790820301
 30
0.0
 10
16.4838471042
 20
11.4757100106
 30
0.0
 10
16.4890885321
 20
11.4719910581
 30
0.0
 10
16.4955596937
 20
11.4697316103
 30
0.0
 10
16.5002719129
 20
11.469263062
 30
0.0
 10
16.5027084891
 20
11.469263062
 30
0.0
  0
SPLINE
  5
3E1
100
AcDbEntity
  8
0
100
AcDbSpline
 62
7
  6
BYLAYER
 70
0
 71
3
 72
13
 73
9
 74
0
 42
0.0000001
 43
0.0000001
 44
0.0000000001
 40
0.0
 40
0.0
 40
0.0
 40
0.0
 40
0.2847006991
 40
0.5411017205
 40
0.6608783279
 40
0.7763927409
 40
0.8889539553
 40
1.0
 40
1.0
 40
1.0
 40
1.0
 10
16.7507274946
 20
13.1810135399
 30
0.0
 10
16.7415749584
 20
13.190882133
 30
0.0
 10
16.7229238243
 20
13.2085477137
 30
0.0
 10
16.6967309645
 20
13.2259614475
 30
0.0
 10
16.6755229881
 20
13.2355842964
 30
0.0
 10
16.6598346444
 20
13.2406440355
 30
0.0
 10
16.644054636
 20
13.24369062
 30
0.0
 10
16.6334710556
 20
13.2443688523
 30
0.0
 10
16.6282212482
 20
13.2443676681
 30
0.0
  0
SPLINE
  5
3E2
100
AcDbEntity
  8
0
100
AcDbSpline
 62
7
  6
BYLAYER
 70
0
 71
3
 72
12
 73
8
 74
0
 42
0.0000001
 43
0.0000001
 44
0.0000000001
 40
0.0
 40
0.0
 40
0.0
 40
0.0
 40
0.2806712593
 40
0.5396590317
 40
0.6612275705
 40
0.7780622737
 40
1.0
 40
1.0
 40
1.0
 40
1.0
 10
14.4901887834
 20
12.8718499603
 30
0.0
 10
14.4982116381
 20
12.8978119279
 30
0.0
 10
14.5156122807
 20
12.9471545353
 30
0.0
 10
14.5427460053
 20
13.0052931425
 30
0.0
 10
14.5671895716
 20
13.0468306952
 30
0.0
 10
14.5924401906
 20
13.0835721499
 30
0.0
 10
14.6142684347
 20
13.1083825104
 30
0.0
 10
14.6301172608
 20
13.1228913529
 30
0.0
  0
SPLINE
  5
3E3
100
AcDbEntity
  8
0
100
AcDbSpline
 62
7
  6
BYLAYER
 70
0
 71
3
 72
9
 73
5
 74
0
 42
0.0000001
 43
0.0000001
 44
0.0000000001
 40
0.0
 40
0.0
 40
0.0
 40
0.0
 40
0.5103550355
 40
1.0
 40
1.0
 40
1.0
 40
1.0
 10
16.9140418642
 20
13.1316634035
 30
0.0
 10
16.906259489
 20
13.1352440452
 30
0.0
 10
16.8902935643
 20
13.1408456149
 30
0.0
 10
16.8734568324
 20
13.1428030661
 30
0.0
 10
16.8652378784
 20
13.1428049917
 30
0.0
  0
SPLINE
  5
3E4
100
AcDbEntity
  8
0
100
AcDbSpline
 62
7
  6
BYLAYER
 70
0
 71
3
 72
24
 73
20
 74
0
 42
0.0000001
 43
0.0000001
 44
0.0000000001
 40
0.0
 40
0.0
 40
0.0
 40
0.0
 40
0.0453775149
 40
0.0690216879
 40
0.0934346895
 40
0.1448300726
 40
0.1999429567
 40
0.2587882065
 40
0.3211286908
 40
0.3865372136
 40
0.4544438106
 40
0.5241760442
 40
0.5949947299
 40
0.6661224186
 40
0.7367716983
 40
0.8061720633
 40
0.8735858721
 40
0.9383935857
 40
1.0
 40
1.0
 40
1.0
 40
1.0
 10
14.6300752473
 20
11.7408952167
 30
0.0
 10
14.6168924209
 20
11.7529644963
 30
0.0
 10
14.5984665516
 20
11.7731573832
 30
0.0
 10
14.5766491072
 20
11.8028089164
 30
0.0
 10
14.5554399234
 20
11.8357733008
 30
0.0
 10
14.5313292444
 20
11.881468884
 30
0.0
 10
14.506293043
 20
11.9416704989
 30
0.0
 10
14.4846139967
 20
12.0077028754
 30
0.0
 10
14.4663469146
 20
12.078940471
 30
0.0
 10
14.4516071282
 20
12.154623306
 30
0.0
 10
14.4405234865
 20
12.233863317
 30
0.0
 10
14.4332077015
 20
12.3156763397
 30
0.0
 10
14.4297399156
 20
12.3990108196
 30
0.0
 10
14.4301595018
 20
12.4827771132
 30
0.0
 10
14.4344619598
 20
12.5658753136
 30
0.0
 10
14.4426002424
 20
12.6472173344
 30
0.0
 10
14.4544808888
 20
12.7257757854
 30
0.0
 10
14.4699946879
 20
12.8005667307
 30
0.0
 10
14.4830244511
 20
12.8486661728
 30
0.0
 10
14.4901887834
 20
12.8718499603
 30
0.0
  0
SPLINE
  5
3E5
100
AcDbEntity
  8
0
100
AcDbSpline
 62
7
  6
BYLAYER
 70
0
 71
3
 72
10
 73
6
 74
0
 42
0.0000001
 43
0.0000001
 44
0.0000000001
 40
0.0
 40
0.0
 40
0.0
 40
0.0
 40
0.2416823328
 40
0.4868873928
 40
1.0
 40
1.0
 40
1.0
 40
1.0
 10
16.8652040221
 20
11.7209310369
 30
0.0
 10
16.8699541919
 20
11.7209299138
 30
0.0
 10
16.8795371973
 20
11.7215660464
 30
0.0
 10
16.8988517861
 20
11.7254193737
 30
0.0
 10
16.9128171146
 20
11.7311270312
 30
0.0
 10
16.9217085274
 20
11.7358862834
 30
0.0
  0
SPLINE
  5
3E6
100
AcDbEntity
  8
0
100
AcDbSpline
 62
7
  6
BYLAYER
 70
0
 71
3
 72
11
 73
7
 74
0
 42
0.0000001
 43
0.0000001
 44
0.0000000001
 40
0.0
 40
0.0
 40
0.0
 40
0.0
 40
0.2730192329
 40
0.528376171
 40
0.7693371695
 40
1.0
 40
1.0
 40
1.0
 40
1.0
 10
16.8228205998
 20
11.7208237062
 30
0.0
 10
16.8169653937
 20
11.7156760655
 30
0.0
 10
16.8051109768
 20
11.7062812459
 30
0.0
 10
16.7863056625
 20
11.6948054312
 30
0.0
 10
16.7671958108
 20
11.6865165737
 30
0.0
 10
16.754095751
 20
11.6831075889
 30
0.0
 10
16.7476044912
 20
11.6819901337
 30
0.0
  0
SPLINE
  5
3E7
100
AcDbEntity
  8
0
100
AcDbSpline
 62
7
  6
BYLAYER
 70
0
 71
3
 72
11
 73
7
 74
0
 42
0.0000001
 43
0.0000001
 44
0.0000000001
 40
0.0
 40
0.0
 40
0.0
 40
0.0
 40
0.230387231
 40
0.4692010738
 40
0.7238285423
 40
1.0
 40
1.0
 40
1.0
 40
1.0
 10
16.728021356
 20
13.1834300727
 30
0.0
 10
16.7360774608
 20
13.1834307012
 30
0.0
 10
16.7525327799
 20
13.1816594276
 30
0.0
 10
16.7767580694
 20
13.1738080702
 30
0.0
 10
16.8005146098
 20
13.160890279
 30
0.0
 10
16.8152796838
 20
13.1495203347
 30
0.0
 10
16.8225429293
 20
13.1431560346
 30
0.0
  0
SPLINE
  5
3E8
100
AcDbEntity
  8
0
100
AcDbSpline
 62
7
  6
BYLAYER
 70
0
 71
3
 72
12
 73
8
 74
0
 42
0.0000001
 43
0.0000001
 44
0.0000000001
 40
0.0
 40
0.0
 40
0.0
 40
0.0
 40
0.1116059161
 40
0.2246564355
 40
0.4601649836
 40
0.7164585015
 40
1.0
 40
1.0
 40
1.0
 40
1.0
 10
16.628240606
 20
11.6193698513
 30
0.0
 10
16.6333644011
 20
11.6193699527
 30
0.0
 10
16.6436902407
 20
11.6200169701
 30
0.0
 10
16.664495932
 20
11.6239314926
 30
0.0
 10
16.6906536411
 20
11.6340040559
 30
0.0
 10
16.7206785471
 20
11.6534834
 30
0.0
 10
16.7389851317
 20
11.6703558475
 30
0.0
 10
16.747963766
 20
11.6797810491
 30
0.0
  0
SPLINE
  5
3E9
100
AcDbEntity
  8
0
100
AcDbSpline
 62
7
  6
BYLAYER
 70
0
 71
3
 72
29
 73
25
 74
0
 42
0.0000001
 43
0.0000001
 44
0.0000000001
 40
0.0
 40
0.0
 40
0.0
 40
0.0
 40
0.0154472472
 40
0.0312886853
 40
0.0478830855
 40
0.0655315399
 40
0.0844663568
 40
0.1048544596
 40
0.1268064494
 40
0.1503827055
 40
0.1756076291
 40
0.2024697391
 40
0.2309350725
 40
0.2609446701
 40
0.325267009
 40
0.3946735702
 40
0.468202893
 40
0.5447633434
 40
0.6231746266
 40
0.702204667
 40
0.7806043705
 40
0.8571418194
 40
0.9306372411
 40
1.0
 40
1.0
 40
1.0
 40
1.0
 10
14.7966724419
 20
11.6193698513
 30
0.0
 10
14.7894443616
 20
11.6193697084
 30
0.0
 10
14.7747725302
 20
11.6206706314
 30
0.0
 10
14.7530331538
 20
11.6264887981
 30
0.0
 10
14.7315621725
 20
11.6361055561
 30
0.0
 10
14.7104701422
 20
11.6494450617
 30
0.0
 10
14.6898355553
 20
11.6664162716
 30
0.0
 10
14.6697366252
 20
11.6869299651
 30
0.0
 10
14.6502539946
 20
11.7108899271
 30
0.0
 10
14.6314624478
 20
11.7381837809
 30
0.0
 10
14.6134486943
 20
11.7686917831
 30
0.0
 10
14.596285314
 20
11.8022723632
 30
0.0
 10
14.5800554986
 20
11.8387755877
 30
0.0
 10
14.5592734687
 20
11.8923648542
 30
0.0
 10
14.5363752701
 20
11.9655766511
 30
0.0
 10
14.5142442048
 20
12.0600702278
 30
0.0
 10
14.4972767188
 20
12.1614315444
 30
0.0
 10
14.485792272
 20
12.2677896217
 30
0.0
 10
14.480008813
 20
12.3771837765
 30
0.0
 10
14.4800360907
 20
12.487590125
 30
0.0
 10
14.4858735632
 20
12.5969647619
 30
0.0
 10
14.4974111064
 20
12.7032867438
 30
0.0
 10
14.5144280828
 20
12.804585574
 30
0.0
 10
14.5297267284
 20
12.8697229739
 30
0.0
 10
14.5383441212
 20
12.9010143171
 30
0.0
  0
SPLINE
  5
3EA
100
AcDbEntity
  8
0
100
AcDbSpline
 62
7
  6
BYLAYER
 70
0
 71
3
 72
18
 73
14
 74
0
 42
0.0000001
 43
0.0000001
 44
0.0000000001
 40
0.0
 40
0.0
 40
0.0
 40
0.0
 40
0.173980921
 40
0.3343477484
 40
0.4798998963
 40
0.6100164334
 40
0.7248839635
 40
0.7770196776
 40
0.8259635607
 40
0.8721362054
 40
0.9160777702
 40
0.9584459345
 40
1.0
 40
1.0
 40
1.0
 40
1.0
 10
14.5383441212
 20
12.9010143171
 30
0.0
 10
14.5453598284
 20
12.9264896446
 30
0.0
 10
14.5603686082
 20
12.9750499882
 30
0.0
 10
14.5870267917
 20
13.0429661811
 30
0.0
 10
14.6166310776
 20
13.1023266882
 30
0.0
 10
14.6487866319
 20
13.1523249962
 30
0.0
 10
14.6783297989
 20
13.1867231877
 30
0.0
 10
14.702977056
 20
13.2084342018
 30
0.0
 10
14.721231348
 20
13.2214332124
 30
0.0
 10
14.7397906378
 20
13.2316236172
 30
0.0
 10
14.7585968444
 20
13.2389555519
 30
0.0
 10
14.7775756558
 20
13.24337531
 30
0.0
 10
14.7903419751
 20
13.2443662444
 30
0.0
 10
14.7966530841
 20
13.2443676681
 30
0.0
  0
SPLINE
  5
3EB
100
AcDbEntity
  8
0
100
AcDbSpline
 62
7
  6
BYLAYER
 70
0
 71
3
 72
13
 73
9
 74
0
 42
0.0000001
 43
0.0000001
 44
0.0000000001
 40
0.0
 40
0.0
 40
0.0
 40
0.0
 40
0.2565330176
 40
0.3899282179
 40
0.5228045531
 40
0.6523494753
 40
0.776178576
 40
1.0
 40
1.0
 40
1.0
 40
1.0
 10
16.5287479694
 20
11.5025838672
 30
0.0
 10
16.5241515652
 20
11.5025838672
 30
0.0
 10
16.5171187246
 20
11.5012771221
 30
0.0
 10
16.5085086585
 20
11.4975393632
 30
0.0
 10
16.5024790112
 20
11.4937494083
 30
0.0
 10
16.4972425532
 20
11.489170008
 30
0.0
 10
16.4918188216
 20
11.4825431764
 30
0.0
 10
16.4892122478
 20
11.4766080973
 30
0.0
 10
16.4885974717
 20
11.4726452022
 30
0.0
  0
SPLINE
  5
3EC
100
AcDbEntity
  8
0
100
AcDbSpline
 62
7
  6
BYLAYER
 70
0
 71
3
 72
14
 73
10
 74
0
 42
0.0000001
 43
0.0000001
 44
0.0000000001
 40
0.0
 40
0.0
 40
0.0
 40
0.0
 40
0.2699467282
 40
0.4094087518
 40
0.5450901376
 40
0.6729090147
 40
0.7905447848
 40
0.8983603065
 40
1.0
 40
1.0
 40
1.0
 40
1.0
 10
16.5027084891
 20
11.469263062
 30
0.0
 10
16.5085954395
 20
11.469263062
 30
0.0
 10
16.5176109275
 20
11.4713942305
 30
0.0
 10
16.5279968461
 20
11.4772555228
 30
0.0
 10
16.5347150429
 20
11.4830250996
 30
0.0
 10
16.5397599843
 20
11.4897206568
 30
0.0
 10
16.5427719714
 20
11.4969167549
 30
0.0
 10
16.543471657
 20
11.5041405687
 30
0.0
 10
16.5422506551
 20
11.5086719122
 30
0.0
 10
16.5412756025
 20
11.5106624708
 30
0.0
  0
SPLINE
  5
3ED
100
AcDbEntity
  8
0
100
AcDbSpline
 62
7
  6
BYLAYER
 70
0
 71
3
 72
11
 73
7
 74
0
 42
0.0000001
 43
0.0000001
 44
0.0000000001
 40
0.0
 40
0.0
 40
0.0
 40
0.0
 40
0.2329818715
 40
0.4718736556
 40
0.7259266573
 40
1.0
 40
1.0
 40
1.0
 40
1.0
 10
15.5752777234
 20
11.9628199403
 30
0.0
 10
15.5761200582
 20
11.965545615
 30
0.0
 10
15.578793313
 20
11.9708218378
 30
0.0
 10
15.5854216572
 20
11.9769973296
 30
0.0
 10
15.5941385965
 20
11.980884655
 30
0.0
 10
15.6006513031
 20
11.9816944208
 30
0.0
 10
15.6040073319
 20
11.9816944208
 30
0.0
  0
SPLINE
  5
3EE
100
AcDbEntity
  8
0
100
AcDbSpline
 62
7
  6
BYLAYER
 70
0
 71
3
 72
12
 73
8
 74
0
 42
0.0000001
 43
0.0000001
 44
0.0000000001
 40
0.0
 40
0.0
 40
0.0
 40
0.0
 40
0.2483108284
 40
0.507075551
 40
0.636094687
 40
0.7622860367
 40
1.0
 40
1.0
 40
1.0
 40
1.0
 10
15.9110276632
 20
11.9816944208
 30
0.0
 10
15.9158755579
 20
11.9816944208
 30
0.0
 10
15.9258135779
 20
11.9799073454
 30
0.0
 10
15.9370378803
 20
11.9742432625
 30
0.0
 10
15.9449576845
 20
11.9680357215
 30
0.0
 10
15.951694226
 20
11.9611418483
 30
0.0
 10
15.9556287035
 20
11.9550664354
 30
0.0
 10
15.9574769537
 20
11.9508093335
 30
0.0
  0
SPLINE
  5
3EF
100
AcDbEntity
  8
0
100
AcDbSpline
 62
7
  6
BYLAYER
 70
0
 71
3
 72
40
 73
36
 74
0
 42
0.0000001
 43
0.0000001
 44
0.0000000001
 40
0.0
 40
0.0
 40
0.0
 40
0.0
 40
0.0083663946
 40
0.0168442571
 40
0.0255397849
 40
0.0345495969
 40
0.0538111503
 40
0.0751651671
 40
0.0989164309
 40
0.1252081494
 40
0.1540624388
 40
0.1854075466
 40
0.2191036959
 40
0.2549565558
 40
0.292727703
 40
0.3321462185
 40
0.3729130388
 40
0.4147085388
 40
0.5000217723
 40
0.5853345406
 40
0.6271296302
 40
0.6678958056
 40
0.7073131092
 40
0.7450835854
 40
0.7809349377
 40
0.8146296155
 40
0.8459737572
 40
0.8748258902
 40
0.9011163219
 40
0.9248663408
 40
0.9462184349
 40
0.9654792048
 40
0.9831557515
 40
0.9916335588
 40
1.0
 40
1.0
 40
1.0
 40
1.0
 10
16.6282212482
 20
13.2443676681
 30
0.0
 10
16.62303597
 20
13.2443664983
 30
0.0
 10
16.6125848373
 20
13.2437010596
 30
0.0
 10
16.5969992632
 20
13.2407280231
 30
0.0
 10
16.5815022923
 20
13.2357867963
 30
0.0
 10
16.5605587139
 20
13.2263953971
 30
0.0
 10
16.5346714556
 20
13.2094054901
 30
0.0
 10
16.5054201846
 20
13.1820669278
 30
0.0
 10
16.477446432
 20
13.1476348885
 30
0.0
 10
16.4509661917
 20
13.106430698
 30
0.0
 10
16.4261956053
 20
13.0588220864
 30
0.0
 10
16.4033523693
 20
13.0052462726
 30
0.0
 10
16.3826500029
 20
12.9461994965
 30
0.0
 10
16.3642866124
 20
12.8822364084
 30
0.0
 10
16.3484350337
 20
12.8139635638
 30
0.0
 10
16.3352517015
 20
12.742030723
 30
0.0
 10
16.3248626337
 20
12.6671240475
 30
0.0
 10
16.3148054426
 20
12.5635420005
 30
0.0
 10
16.3098445267
 20
12.431844199
 30
0.0
 10
16.3148093565
 20
12.3001468661
 30
0.0
 10
16.324867694
 20
12.196565883
 30
0.0
 10
16.3352585554
 20
12.1216608409
 30
0.0
 10
16.348444725
 20
12.0497301434
 30
0.0
 10
16.3642961141
 20
11.9814594094
 30
0.0
 10
16.3826622118
 20
11.9174993966
 30
0.0
 10
16.4033661741
 20
11.8584558689
 30
0.0
 10
16.4262089679
 20
11.8048828169
 30
0.0
 10
16.4509824898
 20
11.7572790359
 30
0.0
 10
16.4774639448
 20
11.7160782354
 30
0.0
 10
16.5054334813
 20
11.681649971
 30
0.0
 10
16.534700795
 20
11.6543162342
 30
0.0
 10
16.5650662012
 20
11.6343678588
 30
0.0
 10
16.5915403013
 20
11.6240443199
 30
0.0
 10
16.6126032866
 20
11.620032115
 30
0.0
 10
16.6230552988
 20
11.6193697488
 30
0.0
 10
16.628240606
 20
11.6193698513
 30
0.0
  0
SPLINE
  5
3F0
100
AcDbEntity
  8
0
100
AcDbSpline
 62
7
  6
BYLAYER
 70
0
 71
3
 72
13
 73
9
 74
0
 42
0.0000001
 43
0.0000001
 44
0.0000000001
 40
0.0
 40
0.0
 40
0.0
 40
0.0
 40
0.2904912101
 40
0.5550656207
 40
0.6769976629
 40
0.7917914637
 40
0.8994362443
 40
1.0
 40
1.0
 40
1.0
 40
1.0
 10
15.9591489461
 20
11.9461949377
 30
0.0
 10
15.9669968284
 20
11.9191667369
 30
0.0
 10
15.9837786439
 20
11.8680134971
 30
0.0
 10
16.0094514152
 20
11.8075377194
 30
0.0
 10
16.0319586723
 20
11.7644724202
 30
0.0
 10
16.0491399326
 20
11.7358452679
 30
0.0
 10
16.0670097519
 20
11.7101252603
 30
0.0
 10
16.0797627045
 20
11.6944604959
 30
0.0
 10
16.0862497238
 20
11.6871907843
 30
0.0
  0
SPLINE
  5
3F1
100
AcDbEntity
  8
0
100
AcDbSpline
 62
7
  6
BYLAYER
 70
0
 71
3
 72
11
 73
7
 74
0
 42
0.0000001
 43
0.0000001
 44
0.0000000001
 40
0.0
 40
0.0
 40
0.0
 40
0.0
 40
0.3012436562
 40
0.5610013224
 40
0.7883205919
 40
1.0
 40
1.0
 40
1.0
 40
1.0
 10
16.0862497238
 20
11.6871907843
 30
0.0
 10
16.086838645
 20
11.6865308068
 30
0.0
 10
16.0878572194
 20
11.6852257727
 30
0.0
 10
16.0889213187
 20
11.6831492887
 30
0.0
 10
16.0893625755
 20
11.6811153434
 30
0.0
 10
16.089200883
 20
11.6798056423
 30
0.0
 10
16.0890173564
 20
11.6792118074
 30
0.0
  0
SPLINE
  5
3F2
100
AcDbEntity
  8
0
100
AcDbSpline
 62
7
  6
BYLAYER
 70
0
 71
3
 72
40
 73
36
 74
0
 42
0.0000001
 43
0.0000001
 44
0.0000000001
 40
0.0
 40
0.0
 40
0.0
 40
0.0
 40
0.0083662642
 40
0.0168439448
 40
0.0345196744
 40
0.0537797396
 40
0.0751309631
 40
0.0988794236
 40
0.1251691591
 40
0.1540202044
 40
0.1853632781
 40
0.2190575289
 40
0.2549080263
 40
0.2926781764
 40
0.3320953158
 40
0.372861223
 40
0.4146564746
 40
0.499969713
 40
0.5852838711
 40
0.6270800183
 40
0.6678474003
 40
0.7072667176
 40
0.7450385458
 40
0.7808920682
 40
0.8145890475
 40
0.8459347444
 40
0.8747896878
 40
0.9010819986
 40
0.9248337063
 40
0.9461881605
 40
0.9654500056
 40
0.9744599488
 40
0.9831555832
 40
0.9916335271
 40
1.0
 40
1.0
 40
1.0
 40
1.0
 10
16.8652378784
 20
13.1428049917
 30
0.0
 10
16.8607007885
 20
13.1428060546
 30
0.0
 10
16.8515552145
 20
13.1422272398
 30
0.0
 10
16.8331255984
 20
13.1387169042
 30
0.0
 10
16.8099591893
 20
13.1296901062
 30
0.0
 10
16.7833887912
 20
13.1122373642
 30
0.0
 10
16.7577796904
 20
13.0883228575
 30
0.0
 10
16.7333036961
 20
13.0582019198
 30
0.0
 10
16.7101326117
 20
13.0221526825
 30
0.0
 10
16.6884542869
 20
12.9805014841
 30
0.0
 10
16.6684650077
 20
12.9336267944
 30
0.0
 10
16.6503488947
 20
12.8819645707
 30
0.0
 10
16.634276474
 20
12.8260005203
 30
0.0
 10
16.6204055064
 20
12.7662639913
 30
0.0
 10
16.6088669916
 20
12.7033245743
 30
0.0
 10
16.5997730144
 20
12.6377824582
 30
0.0
 10
16.5909713304
 20
12.5471481006
 30
0.0
 10
16.5866248212
 20
12.431911114
 30
0.0
 10
16.5909648443
 20
12.3166733098
 30
0.0
 10
16.5997638319
 20
12.2260368995
 30
0.0
 10
16.6088542227
 20
12.1604918328
 30
0.0
 10
16.6203887821
 20
12.0975487105
 30
0.0
 10
16.6342588971
 20
12.0378081749
 30
0.0
 10
16.650326853
 20
11.9818386933
 30
0.0
 10
16.6684410282
 20
11.9301708818
 30
0.0
 10
16.6884292365
 20
11.883290463
 30
0.0
 10
16.7101035148
 20
11.8416313352
 30
0.0
 10
16.7332739008
 20
11.8055761979
 30
0.0
 10
16.7577513897
 20
11.775447055
 30
0.0
 10
16.7833464523
 20
11.7515246059
 30
0.0
 10
16.8059982839
 20
11.7366578453
 30
0.0
 10
16.8243242036
 20
11.7284398689
 30
0.0
 10
16.8378842772
 20
11.7241159758
 30
0.0
 10
16.8515219126
 20
11.7215144367
 30
0.0
 10
16.8606668191
 20
11.7209321096
 30
0.0
 10
16.8652040221
 20
11.7209310369
 30
0.0
  0
SPLINE
  5
3F3
100
AcDbEntity
  8
0
100
AcDbSpline
 62
7
  6
BYLAYER
 70
0
 71
3
 72
40
 73
36
 74
0
 42
0.0000001
 43
0.0000001
 44
0.0000000001
 40
0.0
 40
0.0
 40
0.0
 40
0.0
 40
0.0083664026
 40
0.0168441392
 40
0.025539438
 40
0.0345489325
 40
0.053809604
 40
0.0751626343
 40
0.0989127819
 40
0.1252034868
 40
0.1540568433
 40
0.1854010224
 40
0.2190965924
 40
0.2549488428
 40
0.2927195613
 40
0.3321379505
 40
0.3729045984
 40
0.4147002169
 40
0.500013955
 40
0.5853276397
 40
0.6271234334
 40
0.667890085
 40
0.7073081617
 40
0.7450794255
 40
0.7809311949
 40
0.8146268533
 40
0.8459714377
 40
0.8748240617
 40
0.9011153933
 40
0.9248654009
 40
0.9462180376
 40
0.9654792663
 40
0.9831557771
 40
0.9916336646
 40
1.0
 40
1.0
 40
1.0
 40
1.0
 10
16.7654394589
 20
11.7209310342
 30
0.0
 10
16.7609022931
 20
11.7209313895
 30
0.0
 10
16.7517574429
 20
11.7215122581
 30
0.0
 10
16.7381197289
 20
11.7241116335
 30
0.0
 10
16.7245595278
 20
11.7284333762
 30
0.0
 10
16.7062334516
 20
11.7366484285
 30
0.0
 10
16.6835812054
 20
11.7515116132
 30
0.0
 10
16.6579854833
 20
11.7754301033
 30
0.0
 10
16.6335072269
 20
11.8055554475
 30
0.0
 10
16.6103359622
 20
11.8416069793
 30
0.0
 10
16.5886606823
 20
11.8832627239
 30
0.0
 10
16.5686713528
 20
11.9301400182
 30
0.0
 10
16.5505559474
 20
11.9818049983
 30
0.0
 10
16.5344866572
 20
12.0377719698
 30
0.0
 10
16.5206151189
 20
12.0975103436
 30
0.0
 10
16.5090790628
 20
12.1604516745
 30
0.0
 10
16.4999871108
 20
12.225995336
 30
0.0
 10
16.4911859479
 20
12.3166306327
 30
0.0
 10
16.4868432105
 20
12.4318680821
 30
0.0
 10
16.4911870149
 20
12.547105493
 30
0.0
 10
16.499986531
 20
12.6377410176
 30
0.0
 10
16.5090789623
 20
12.7032845744
 30
0.0
 10
16.5206159898
 20
12.7662258132
 30
0.0
 10
16.5344855513
 20
12.8259645258
 30
0.0
 10
16.5505566559
 20
12.8819311001
 30
0.0
 10
16.5686715526
 20
12.9335961625
 30
0.0
 10
16.5886597328
 20
12.9804739736
 30
0.0
 10
16.6103370738
 20
13.0221285463
 30
0.0
 10
16.6335072956
 20
13.0581813744
 30
0.0
 10
16.6579825466
 20
13.0883060822
 30
0.0
 10
16.6835910019
 20
13.1122245241
 30
0.0
 10
16.7101608508
 20
13.1296813578
 30
0.0
 10
16.733327049
 20
13.1387118406
 30
0.0
 10
16.751756695
 20
13.1422250916
 30
0.0
 10
16.7609023296
 20
13.1428053499
 30
0.0
 10
16.7654394589
 20
13.1428049942
 30
0.0
  0
SPLINE
  5
3F4
100
AcDbEntity
  8
0
100
AcDbSpline
 62
7
  6
BYLAYER
 70
0
 71
3
 72
11
 73
7
 74
0
 42
0.0000001
 43
0.0000001
 44
0.0000000001
 40
0.0
 40
0.0
 40
0.0
 40
0.0
 40
0.2268727775
 40
0.4649931183
 40
0.7221570508
 40
1.0
 40
1.0
 40
1.0
 40
1.0
 10
16.5412756025
 20
11.5106624708
 30
0.0
 10
16.5404003862
 20
11.5124492148
 30
0.0
 10
16.5379496952
 20
11.5158212343
 30
0.0
 10
16.5327082674
 20
11.5195401868
 30
0.0
 10
16.5262371057
 20
11.5217996345
 30
0.0
 10
16.5215248865
 20
11.5222681829
 30
0.0
 10
16.5190883103
 20
11.5222681829
 30
0.0
  0
SPLINE
  5
3F5
100
AcDbEntity
  8
0
100
AcDbSpline
 62
7
  6
BYLAYER
 70
0
 71
3
 72
40
 73
36
 74
0
 42
0.0000001
 43
0.0000001
 44
0.0000000001
 40
0.0
 40
0.0
 40
0.0
 40
0.0
 40
0.0083662259
 40
0.0168438891
 40
0.0345200897
 40
0.0537805643
 40
0.0751321763
 40
0.0988815704
 40
0.1251716323
 40
0.1540232119
 40
0.1853669478
 40
0.2190613585
 40
0.2549123416
 40
0.2926826748
 40
0.3320998649
 40
0.3728659563
 40
0.4146610979
 40
0.4999740952
 40
0.5852877778
 40
0.6270835673
 40
0.6678506919
 40
0.7072695589
 40
0.7450410449
 40
0.7808942633
 40
0.8145907499
 40
0.8459361944
 40
0.8747907967
 40
0.9010827676
 40
0.924834309
 40
0.9461884937
 40
0.9654502024
 40
0.9744600683
 40
0.9831556761
 40
0.9916335693
 40
1.0
 40
1.0
 40
1.0
 40
1.0
 10
16.6282480617
 20
11.6803065129
 30
0.0
 10
16.6234517567
 20
11.6803060187
 30
0.0
 10
16.6137837267
 20
11.6809181629
 30
0.0
 10
16.5943009352
 20
11.6846299137
 30
0.0
 10
16.5698115769
 20
11.6941757649
 30
0.0
 10
16.541723332
 20
11.71262714
 30
0.0
 10
16.5146507017
 20
11.737909339
 30
0.0
 10
16.4887779245
 20
11.7697538956
 30
0.0
 10
16.46428252
 20
11.8078637731
 30
0.0
 10
16.4413661366
 20
11.8518961627
 30
0.0
 10
16.4202359625
 20
11.9014504803
 30
0.0
 10
16.4010844746
 20
11.9560652369
 30
0.0
 10
16.3840949022
 20
12.0152277734
 30
0.0
 10
16.3694319537
 20
12.0783780155
 30
0.0
 10
16.357234249
 20
12.1449138916
 30
0.0
 10
16.3476219352
 20
12.2142011522
 30
0.0
 10
16.3383174998
 20
12.310014021
 30
0.0
 10
16.3337240683
 20
12.4318349228
 30
0.0
 10
16.3383123518
 20
12.5536564648
 30
0.0
 10
16.3476148516
 20
12.6494708872
 30
0.0
 10
16.3572245343
 20
12.7187604211
 30
0.0
 10
16.3694188604
 20
12.7852992031
 30
0.0
 10
16.384081489
 20
12.8484524887
 30
0.0
 10
16.4010675008
 20
12.9076192555
 30
0.0
 10
16.4202171937
 20
12.9622383975
 30
0.0
 10
16.4413471876
 20
13.0117968716
 30
0.0
 10
16.4642600073
 20
13.0558356404
 30
0.0
 10
16.4887544375
 20
13.0939501597
 30
0.0
 10
16.5146301355
 20
13.1258005622
 30
0.0
 10
16.5416878789
 20
13.1510890919
 30
0.0
 10
16.5656336626
 20
13.1668052952
 30
0.0
 10
16.5850067243
 20
13.1754923617
 30
0.0
 10
16.5993414224
 20
13.1800635056
 30
0.0
 10
16.6137582615
 20
13.1828134837
 30
0.0
 10
16.62342563
 20
13.183428951
 30
0.0
 10
16.6282220523
 20
13.1834300699
 30
0.0
  0
SPLINE
  5
3F6
100
AcDbEntity
  8
0
100
AcDbSpline
 62
7
  6
BYLAYER
 70
0
 71
3
 72
40
 73
36
 74
0
 42
0.0000001
 43
0.0000001
 44
0.0000000001
 40
0.0
 40
0.0
 40
0.0
 40
0.0
 40
0.0083662985
 40
0.0168441007
 40
0.0345207682
 40
0.0537819247
 40
0.075134378
 40
0.0988847203
 40
0.1251757951
 40
0.1540284152
 40
0.1853731897
 40
0.2190686116
 40
0.2549205545
 40
0.2926917765
 40
0.3321097651
 40
0.372876547
 40
0.4146722566
 40
0.4999859668
 40
0.5852997298
 40
0.6270953053
 40
0.6678620417
 40
0.7072803479
 40
0.7450511038
 40
0.7809034318
 40
0.8145988826
 40
0.8459431641
 40
0.8747965081
 40
0.9010871665
 40
0.9248373995
 40
0.9461903664
 40
0.96545106
 40
0.9744605405
 40
0.9831558665
 40
0.9916335985
 40
1.0
 40
1.0
 40
1.0
 40
1.0
 10
16.728021356
 20
11.6803065123
 30
0.0
 10
16.7232249833
 20
11.6803063677
 30
0.0
 10
16.7135568242
 20
11.6809192365
 30
0.0
 10
16.6940738167
 20
11.6846325083
 30
0.0
 10
16.6695843091
 20
11.6941803782
 30
0.0
 10
16.641496074
 20
11.7126341511
 30
0.0
 10
16.6144235283
 20
11.7379187941
 30
0.0
 10
16.5885509176
 20
11.7697658327
 30
0.0
 10
16.5640557784
 20
11.8078782125
 30
0.0
 10
16.5411397624
 20
11.8519130914
 30
0.0
 10
16.5200100645
 20
11.9014698538
 30
0.0
 10
16.5008591656
 20
11.956086977
 30
0.0
 10
16.483870289
 20
12.0152517661
 30
0.0
 10
16.4692081451
 20
12.0784041142
 30
0.0
 10
16.4570113475
 20
12.144941916
 30
0.0
 10
16.4474000343
 20
12.2142308899
 30
0.0
 10
16.4380970809
 20
12.3100455639
 30
0.0
 10
16.433505638
 20
12.431867986
 30
0.0
 10
16.4380960956
 20
12.5536904476
 30
0.0
 10
16.4474004507
 20
12.6495049168
 30
0.0
 10
16.457011519
 20
12.7187939709
 30
0.0
 10
16.469207227
 20
12.7853318969
 30
0.0
 10
16.483871225
 20
12.8484839453
 30
0.0
 10
16.5008585746
 20
12.9076490953
 30
0.0
 10
16.5200095552
 20
12.9622662478
 30
0.0
 10
16.5411407799
 20
13.0118223684
 30
0.0
 10
16.5640547541
 20
13.0558584385
 30
0.0
 10
16.5885502571
 20
13.0939699347
 30
0.0
 10
16.6144269517
 20
13.1258170064
 30
0.0
 10
16.6414856105
 20
13.1511019236
 30
0.0
 10
16.6654320569
 20
13.1668147333
 30
0.0
 10
16.6848054762
 20
13.1754989425
 30
0.0
 10
16.6991404495
 20
13.1800679453
 30
0.0
 10
16.7135575155
 20
13.1828157325
 30
0.0
 10
16.7232249242
 20
13.1834296985
 30
0.0
 10
16.728021356
 20
13.1834300727
 30
0.0
  0
SPLINE
  5
3F7
100
AcDbEntity
  8
0
100
AcDbSpline
 62
7
  6
BYLAYER
 70
0
 71
3
 72
14
 73
10
 74
0
 42
0.0000001
 43
0.0000001
 44
0.0000000001
 40
0.0
 40
0.0
 40
0.0
 40
0.0
 40
0.2699467282
 40
0.4094087518
 40
0.5450901376
 40
0.6729090147
 40
0.7905447848
 40
0.8983603065
 40
1.0
 40
1.0
 40
1.0
 40
1.0
 10
16.5190883103
 20
11.5222681829
 30
0.0
 10
16.5132013599
 20
11.5222681829
 30
0.0
 10
16.5041858719
 20
11.5201370144
 30
0.0
 10
16.4937999534
 20
11.5142757221
 30
0.0
 10
16.4870817565
 20
11.5085061453
 30
0.0
 10
16.4820368151
 20
11.501810588
 30
0.0
 10
16.479024828
 20
11.49461449
 30
0.0
 10
16.4783251424
 20
11.4873906762
 30
0.0
 10
16.4795461444
 20
11.4828593327
 30
0.0
 10
16.480521197
 20
11.480868774
 30
0.0
  0
ELLIPSE
  5
3F8
100
AcDbEntity
  8
0
100
AcDbEllipse
 62
7
  6
BYLAYER
 10
4.7916666667
 20
11.8151410416
 30
0.0
 11
-0.0
 21
0.0428886098
 31
0.0
 40
0.9715089116
 41
0.0
 42
1.5707963268
  0
ELLIPSE
  5
3F9
100
AcDbEntity
  8
0
100
AcDbEllipse
 62
7
  6
BYLAYER
 10
5.125
 20
11.8151410416
 30
0.0
 11
0.0
 21
0.0428886098
 31
0.0
 40
0.9715089116
 41
-1.5707963268
 42
0.0
  0
ELLIPSE
  5
3FA
100
AcDbEntity
  8
0
100
AcDbEllipse
 62
7
  6
BYLAYER
 10
15.5852141753
 20
11.8538495017
 30
0.0
 11
-0.0039760804
 21
0.0594412006
 31
0.0
 40
0.6433576747
 41
-0.0430082912
 42
1.0328558987
  0
ELLIPSE
  5
3FB
100
AcDbEntity
  8
0
100
AcDbEllipse
 62
7
  6
BYLAYER
 10
15.8922345066
 20
11.8538495017
 30
0.0
 11
-0.0039760804
 21
0.0594412006
 31
0.0
 40
0.6433576747
 41
-1.613804618
 42
-0.0430082912
  0
ELLIPSE
  5
3FC
100
AcDbEntity
  8
0
100
AcDbEllipse
 62
7
  6
BYLAYER
 10
15.9155164034
 20
11.2588873262
 30
0.0
 11
-0.0039760804
 21
0.0594412006
 31
0.0
 40
0.6433576747
 41
-2.1087367548
 42
-1.613804618
  0
ENDSEC
  0
SECTION
  2
OBJECTS
  0
DICTIONARY
  5
C
100
AcDbDictionary
280
0
281
1
  3
ACAD_GROUP
350
D
  3
ACAD_MLINESTYLE
350
17
  3
ACAD_LAYOUT
350
1A
  3
ACAD_PLOTSETTINGS
350
19
  3
ACAD_PLOTSTYLENAME
350
E
  0
DICTIONARY
  5
D
102
{ACAD_REACTORS
330
C
102
}
100
AcDbDictionary
280
0
281
1
  0
ACDBDICTIONARYWDFLT
  5
E
102
{ACAD_REACTORS
330
C
102
}
100
AcDbDictionary
281
1
  3
Normal
350
F
100
AcDbDictionaryWithDefault
340
F
  0
DICTIONARY
  5
17
102
{ACAD_REACTORS
330
C
102
}
100
AcDbDictionary
280
0
281
1
  3
Standard
350
18
  0
DICTIONARY
  5
19
102
{ACAD_REACTORS
330
C
102
}
100
AcDbDictionary
281
1
  0
DICTIONARY
  5
1A
102
{ACAD_REACTORS
330
C
102
}
100
AcDbDictionary
281
1
  3
Model
350
3FD
  3
Layout1
350
3FE
  0
ACDBPLACEHOLDER
  5
F
102
{ACAD_REACTORS
330
E
102
}
  0
MLINESTYLE
  5
18
102
{ACAD_REACTORS
330
17
102
}
100
AcDbMlineStyle
  2
STANDARD
 70
0
  3

 62
256
 51
90.0
 52
90.0
 71
2
 49
0.5
 62
256
  6
BYLAYER
 49
-0.5
 62
256
  6
BYLAYER
  0
LAYOUT
  5
3FD
102
{ACAD_REACTORS
330
1A
102
}
100
AcDbPlotSettings
  1

  2
none_device
  4
ANSI_C_(22.00_x_17.00_Inches)
  6

 40
0.0
 41
0.0
 42
0.0
 43
0.0
 44
558.8
 45
431.8
 46
0.0
 47
0.0
 48
0.0
 49
0.0
140
0.0
141
0.0
142
1.0
143
1.0
 70
1024
 72
0
 73
0
 74
0
  7

 75
0
147
1.0
148
0.0
149
0.0
100
AcDbLayout
  1
Model
 70
0
 71
0
 10
0.0
 20
0.0
 11
22.0
 21
17.0
 12
0.0
 22
0.0
 32
0.0
 14
0.0
 24
0.0
 34
0.0
 15
0.0
 25
0.0
 35
0.0
146
0.0
 13
0.0
 23
0.0
 33
0.0
 16
1.0
 26
0.0
 36
0.0
 17
0.0
 27
1.0
 37
0.0
 76
0
330
218
345
0
346
0
  0
LAYOUT
  5
3FE
102
{ACAD_REACTORS
330
1A
102
}
100
AcDbPlotSettings
  1

  2
none_device
  4
ANSI_C_(22.00_x_17.00_Inches)
  6

 40
0.0
 41
0.0
 42
0.0
 43
0.0
 44
558.8
 45
431.8
 46
0.0
 47
0.0
 48
0.0
 49
0.0
140
0.0
141
0.0
142
1.0
143
1.0
 70
0
 72
0
 73
0
 74
0
  7

 75
0
147
1.0
148
0.0
149
0.0
100
AcDbLayout
  1
Layout1
 70
0
 71
1
 10
0.0
 20
0.0
 11
22.0
 21
17.0
 12
0.0
 22
0.0
 32
0.0
 14
0.0
 24
0.0
 34
0.0
 15
0.0
 25
0.0
 35
0.0
146
0.0
 13
0.0
 23
0.0
 33
0.0
 16
1.0
 26
0.0
 36
0.0
 17
0.0
 27
1.0
 37
0.0
 76
0
330
219
345
0
346
0
  0
ENDSEC
  0
EOF
